0
SECTION
2
HEADER
9
$LTSCALE
40
0.5
9
$LIMMIN
10
0
20
0
9
$LIMMAX
10
12
20
9
9
$EXTMIN
10
0.437104
20
3.177314
9
$EXTMAX
10
11.99409
20
7.039672
9
$SNAPMODE
70
0
9
$SNAPUNIT
10
1
20
1
9
$GRIDMODE
70
0
9
$GRIDUNIT
10
0.25
20
0.25
9
$ORTHOMODE
70
0
9
$TEXTSTYLE
7
txt
9
$CLAYER
8
1
9
$CECOLOR
62
7
9
$CELTYPE
6
CONTINUOUS
9
$OSMODE
70
0
0
ENDSEC
0
SECTION
2
TABLES
0
TABLE
2
STYLE
70
1
0
STYLE
2
MONOTXT
70
0
40
0
41
1
50
0
71
0
42
0
3
MONOTXT
4

0
ENDTAB
0
TABLE
2
LTYPE
70
9
0
LTYPE
2
DASHED
70
0
3
__ __ __ __ __ __ __ __ __ __ __ __ __ __ __
72
65
73
2
40
0.75
49
0.5
49
-0.25
0
LTYPE
2
HIDDEN
70
0
3
_ _ _ _ _ _ _ _ _ _ _ _ _ _ _ _ _ _ _ _ _ _ 
72
65
73
2
40
0.375
49
0.25
49
-0.125
0
LTYPE
2
CENTER
70
0
3
____ _ ____ _ ____ _ ____ _ ____ _ ____ _ __
72
65
73
4
40
2
49
1.25
49
-0.25
49
0.25
49
-0.25
0
LTYPE
2
PHANTOM
70
0
3
_____ _ _ _____ _ _ _____ _ _ _____ _ _ ____
72
65
73
6
40
2.5
49
1.25
49
-0.25
49
0.25
49
-0.25
49
0.25
49
-0.25
0
LTYPE
2
DOT
70
0
3
............................................
72
65
73
2
40
0.25
49
0
49
-0.25
0
LTYPE
2
DASHDOT
70
0
3
__ . __ . __ . __ . __ . __ . __ . __ . __ .
72
65
73
4
40
1
49
0.5
49
-0.25
49
0
49
-0.25
0
LTYPE
2
BORDER
70
0
3
__ __ . __ __ . __ __ . __ __ . __ __ . __ _
72
65
73
6
40
1.75
49
0.5
49
-0.25
49
0.5
49
-0.25
49
0
49
-0.25
0
LTYPE
2
DIVIDE
70
0
3
__ . . __ . . __ . . __ . . __ . . __ . . __
72
65
73
6
40
1.25
49
0.5
49
-0.25
49
0
49
-0.25
49
0
49
-0.25
0
LTYPE
2
DOTS
70
0
3
close
72
65
73
2
40
0.1
49
0.05
49
-0.05
0
ENDTAB
0
TABLE
2
LAYER
70
10
0
LAYER
2
1
70
0
62
7
6
CONTINUOUS
0
LAYER
2
2
70
0
62
7
6
CONTINUOUS
0
LAYER
2
3
70
0
62
7
6
CONTINUOUS
0
LAYER
2
4
70
0
62
7
6
CONTINUOUS
0
LAYER
2
5
70
0
62
7
6
CONTINUOUS
0
LAYER
2
6
70
0
62
7
6
CONTINUOUS
0
LAYER
2
7
70
0
62
7
6
CONTINUOUS
0
LAYER
2
8
70
0
62
7
6
CONTINUOUS
0
LAYER
2
9
70
0
62
7
6
CONTINUOUS
0
LAYER
2
10
70
0
62
7
6
CONTINUOUS
0
ENDTAB
0
ENDSEC
0
SECTION
2
ENTITIES
0
POLYLINE
8
1
62
7
70
1
66
1
40
0
41
0
0
VERTEX
8
1
10
5.46005
20
5.121631
0
VERTEX
8
1
10
6.052971
20
5.69421
0
VERTEX
8
1
10
6.62556
20
5.101276
0
VERTEX
8
1
10
6.032639
20
4.528698
0
SEQEND
8
1
0
POLYLINE
8
1
62
7
70
1
66
1
40
0
41
0
0
VERTEX
8
1
10
5.46005
20
5.121631
0
VERTEX
8
1
10
6.052971
20
5.69421
0
VERTEX
8
1
10
6.62556
20
5.101276
0
VERTEX
8
1
10
6.032639
20
4.528698
0
SEQEND
8
1
0
LINE
8
1
62
7
10
5.127641
20
3.680899
11
11.77377
21
3.680899
0
LINE
8
1
62
7
10
6.032501
20
4.435874
11
4.357527
21
4.435874
0
LINE
8
1
62
7
10
6.052846
20
5.815792
11
4.357527
21
5.815792
0
LINE
8
1
62
7
10
3.628914
20
7.039672
11
3.628914
21
3.177314
0
LINE
8
1
62
7
10
3.377597
20
3.177573
11
3.377597
21
7.034346
0
LINE
8
1
62
7
10
3.862397
20
3.177573
11
3.862397
21
7.034346
0
ARC
8
1
62
7
10
4.346677
20
4.665761
40
0.2254028
50
87.24113
51
272.7589
0
ARC
8
1
62
7
10
2.877218
20
4.650929
40
0.2449406
50
272.4367
51
87.56326
0
LINE
8
1
62
7
10
5.127641
20
5.116854
11
5.127641
21
3.680899
0
ARC
8
1
62
7
10
2.877218
20
4.181069
40
0.2449406
50
272.4367
51
87.56326
0
ARC
8
1
62
7
10
2.877218
20
3.672054
40
0.2449406
50
272.4367
51
87.56326
0
LINE
8
1
62
7
10
0.437104
20
3.427335
11
2.865625
21
3.427335
0
ARC
8
1
62
7
10
2.893357
20
6.569527
40
0.2449406
50
272.4367
51
87.56326
0
ARC
8
1
62
7
10
2.877218
20
5.610229
40
0.2449406
50
272.4367
51
87.56326
0
ARC
8
1
62
7
10
2.877218
20
5.12079
40
0.2449406
50
272.4367
51
87.56326
0
ARC
8
1
62
7
10
2.877218
20
6.099667
40
0.2449406
50
272.4367
51
87.56326
0
LINE
8
1
62
7
10
0.459111
20
6.814247
11
2.887632
21
6.814247
0
ARC
8
1
62
7
10
4.346677
20
5.590651
40
0.2254028
50
87.24113
51
272.7589
0
ARC
8
1
62
7
10
4.330538
20
5.135622
40
0.2254028
50
87.24113
51
272.7589
0
SOLID
8
1
62
7
10
5.816525
20
5.40865
11
5.759997
21
5.467185
12
5.759396
22
5.466605
13
5.759396
23
5.466605
0
SOLID
8
1
62
7
10
5.759396
20
5.466605
11
5.757894
21
5.465154
12
5.814421
22
5.406618
13
5.814421
23
5.406618
0
SOLID
8
1
62
7
10
5.814421
20
5.406618
11
5.816525
21
5.40865
12
5.759396
22
5.466605
13
5.759396
23
5.466605
0
SOLID
8
1
62
7
10
5.813926
20
5.406852
11
5.815576
21
5.408446
12
5.814998
22
5.409044
13
5.814998
23
5.409044
0
SOLID
8
1
62
7
10
5.758669
20
5.465724
11
5.813926
21
5.406852
12
5.814998
22
5.409044
13
5.814998
23
5.409044
0
SOLID
8
1
62
7
10
5.814998
20
5.409044
11
5.759493
21
5.466521
12
5.758669
22
5.465724
13
5.758669
23
5.465724
0
SOLID
8
1
62
7
10
5.758558
20
5.465684
11
5.757821
21
5.464973
12
5.814264
22
5.407999
13
5.813528
23
5.407288
0
LINE
8
1
62
7
10
5.75877
20
5.46563
11
5.814264
21
5.408165
0
SOLID
8
1
62
7
10
5.679976
20
5.427903
11
5.772756
21
5.331827
12
5.785581
22
5.436345
13
5.785581
23
5.436345
0
SOLID
8
1
62
7
10
5.804953
20
4.823042
11
5.806607
21
4.821016
12
5.74873
22
4.769853
13
5.751486
23
4.767826
0
SOLID
8
1
62
7
10
5.804258
20
4.822786
11
5.805619
21
4.821377
12
5.749559
22
4.769964
13
5.750597
23
4.768243
0
LINE
8
1
62
7
10
5.804157
20
4.822944
11
5.748946
21
4.769627
0
SOLID
8
1
62
7
10
5.765883
20
4.902771
11
5.669205
21
4.809409
12
5.774773
22
4.795889
13
5.774773
23
4.795889
0
LINE
8
1
62
7
10
5.458736
20
5.121606
11
5.131933
21
5.121606
0
TEXT
8
1
62
7
10
5.131933
20
5.178337
40
0.1155
1
-
41
1.7
7
MONOTXT
0
LINE
8
1
62
7
10
6.032501
20
4.527769
11
6.032501
21
4.435531
0
TEXT
8
1
62
7
10
6.296729
20
4.438618
40
0.1155
1
AC
41
1.7
7
MONOTXT
0
LINE
8
1
62
7
10
7.665052
20
4.584944
11
7.665052
21
4.411011
0
TEXT
8
1
62
7
10
7.590629
20
4.483705
40
0.025
1
+
50
90
41
1.5
7
MONOTXT
0
LINE
8
1
62
7
10
8.831427
20
4.584944
11
8.831427
21
4.411011
0
TEXT
8
1
62
7
10
8.757003
20
4.483705
40
0.025
1
+
50
90
41
1.5
7
MONOTXT
0
LINE
8
1
62
7
10
10.27999
20
4.514531
11
10.27999
21
4.415499
0
CIRCLE
8
1
62
7
10
11.8838
20
4.510113
40
0.110287
0
LINE
8
1
62
7
10
7.514741
20
4.333711
11
7.813056
21
4.333711
0
LINE
8
1
62
7
10
7.552077
20
4.408881
11
7.776572
21
4.408881
0
LINE
8
1
62
7
10
7.514662
20
4.333748
11
7.514662
21
4.459497
0
LINE
8
1
62
7
10
7.569392
20
4.233925
11
7.587595
21
4.233925
0
LINE
8
1
62
7
10
7.665052
20
4.160224
11
7.665052
21
4.334157
0
LINE
8
1
62
7
10
7.658451
20
4.146068
11
7.658451
21
3.701124
0
LINE
8
1
62
7
10
7.814017
20
4.333689
11
7.814017
21
4.45917
0
LINE
8
1
62
7
10
7.813067
20
4.333698
11
7.813973
21
4.333698
0
LINE
8
1
62
7
10
8.681115
20
4.333711
11
8.97943
21
4.333711
0
LINE
8
1
62
7
10
8.718451
20
4.408881
11
8.942946
21
4.408881
0
LINE
8
1
62
7
10
8.681036
20
4.333748
11
8.681036
21
4.459497
0
LINE
8
1
62
7
10
8.735766
20
4.233925
11
8.753969
21
4.233925
0
LINE
8
1
62
7
10
8.831427
20
4.160224
11
8.831427
21
4.334157
0
LINE
8
1
62
7
10
8.980392
20
4.333689
11
8.980392
21
4.45917
0
LINE
8
1
62
7
10
8.979442
20
4.333698
11
8.980348
21
4.333698
0
LINE
8
1
62
7
10
8.824824
20
4.146068
11
8.824824
21
3.680899
0
LINE
8
1
62
7
10
10.10949
20
4.261054
11
10.15649
21
4.31219
0
TEXT
8
1
62
7
10
10.22912
20
4.450979
40
0.035
1
K
50
90
41
1.7
7
MONOTXT
0
LINE
8
1
62
7
10
10.27999
20
4.414949
11
10.27999
21
4.314817
0
LINE
8
1
62
7
10
10.27999
20
4.352229
11
10.27999
21
4.352229
0
LINE
8
1
62
7
10
10.27999
20
3.962704
11
10.27999
21
4.062836
0
LINE
8
1
62
7
10
10.27999
20
3.863122
11
10.27999
21
3.964355
0
TEXT
8
1
62
7
10
10.22932
20
3.885662
40
0.035
1
A
50
90
41
1.7
7
MONOTXT
0
SOLID
8
1
62
7
10
10.15561
20
4.062836
11
10.27999
21
4.311515
12
10.40539
22
4.062836
13
10.40539
23
4.062836
0
LINE
8
1
62
7
10
10.15561
20
4.314817
11
10.40438
21
4.314817
0
LINE
8
1
62
7
10
10.40641
20
4.314514
11
10.4534
21
4.36565
0
LINE
8
1
62
7
10
10.27729
20
3.842697
11
10.27729
21
3.701124
0
CIRCLE
8
1
62
7
10
11.8838
20
3.680899
40
0.110287
0
LINE
8
1
62
7
10
8.846831
20
5.096629
11
10.25528
21
5.096629
0
LINE
8
1
62
7
10
6.932218
20
5.096629
11
7.658451
21
5.096629
0
SOLID
8
1
62
7
10
6.256036
20
4.830597
11
6.341798
21
4.741788
12
6.358929
22
4.844146
13
6.358929
23
4.844146
0
SOLID
8
1
62
7
10
6.398489
20
5.394279
11
6.399199
21
5.393627
12
6.341696
22
5.342086
13
6.344536
23
5.340129
0
SOLID
8
1
62
7
10
6.396894
20
5.395326
11
6.397776
21
5.393591
12
6.342777
22
5.343066
13
6.343659
23
5.341331
0
LINE
8
1
62
7
10
6.397079
20
5.395522
11
6.341867
21
5.342205
0
SOLID
8
1
62
7
10
6.355867
20
5.471826
11
6.264649
21
5.383737
12
6.368273
22
5.367704
13
6.368273
23
5.367704
0
SOLID
8
1
62
7
10
6.334242
20
4.876185
11
6.332838
21
4.874895
12
6.331435
22
4.872315
13
6.331435
23
4.872315
0
SOLID
8
1
62
7
10
6.331435
20
4.872315
11
6.388277
21
4.814918
12
6.390382
22
4.818142
13
6.390382
23
4.818142
0
SOLID
8
1
62
7
10
6.331435
20
4.872315
11
6.390382
21
4.818142
12
6.334242
22
4.876185
13
6.334242
23
4.876185
0
SOLID
8
1
62
7
10
6.333634
20
4.874722
11
6.333039
21
4.874722
12
6.331251
22
4.872533
13
6.331251
23
4.872533
0
SOLID
8
1
62
7
10
6.331251
20
4.872533
11
6.387841
21
4.814505
12
6.389627
22
4.816695
13
6.389627
23
4.816695
0
SOLID
8
1
62
7
10
6.331251
20
4.872533
11
6.389627
21
4.816695
12
6.333634
22
4.874722
13
6.333634
23
4.874722
0
SOLID
8
1
62
7
10
6.389203
20
4.815938
11
6.33312
21
4.874013
12
6.332571
22
4.873482
13
6.332571
23
4.873482
0
SOLID
8
1
62
7
10
6.389203
20
4.815938
11
6.332571
21
4.873482
12
6.387553
22
4.814343
13
6.387553
23
4.814343
0
SOLID
8
1
62
7
10
6.387553
20
4.814343
11
6.387828
21
4.81461
12
6.389203
22
4.815938
13
6.389203
23
4.815938
0
SOLID
8
1
62
7
10
6.331634
20
4.872401
11
6.387138
21
4.814924
12
6.387125
22
4.815456
13
6.387125
23
4.815456
0
SOLID
8
1
62
7
10
6.332669
20
4.873401
11
6.331634
21
4.872401
12
6.387125
22
4.815456
13
6.387125
23
4.815456
0
SOLID
8
1
62
7
10
6.388174
20
4.815924
11
6.332669
21
4.873401
12
6.387125
22
4.815456
13
6.387125
23
4.815456
0
SOLID
8
1
62
7
10
6.387125
20
4.815456
11
6.387397
21
4.815174
12
6.388174
22
4.815924
13
6.388174
23
4.815924
0
LINE
8
1
62
7
10
6.331744
20
4.872297
11
6.387238
21
4.814833
0
LINE
8
1
62
7
10
6.62434
20
5.101583
11
6.903939
21
5.101583
0
TEXT
8
1
62
7
10
6.75143
20
5.20837
40
0.1155
1
+
41
1.7
7
MONOTXT
0
LINE
8
1
62
7
10
6.052846
20
5.693972
11
6.052846
21
5.815506
0
TEXT
8
1
62
7
10
6.296729
20
5.676303
40
0.1155
1
AC
41
1.7
7
MONOTXT
0
LINE
8
1
62
7
10
7.944542
20
5.096629
11
7.702465
21
5.096629
0
LINE
8
1
62
7
10
7.658451
20
4.591011
11
7.658451
21
5.096629
0
LINE
8
1
62
7
10
7.702465
20
5.096629
11
7.680458
21
5.096629
0
LINE
8
1
62
7
10
8.203125
20
5.215955
11
8.240537
21
4.967191
0
LINE
8
1
62
7
10
8.128301
20
4.967191
11
8.203125
21
5.215955
0
LINE
8
1
62
7
10
8.090889
20
5.215955
11
8.128301
21
4.967191
0
LINE
8
1
62
7
10
8.017165
20
5.091573
11
8.090889
21
5.215955
0
LINE
8
1
62
7
10
7.940141
20
5.091573
11
8.017165
21
5.091573
0
LINE
8
1
62
7
10
8.240537
20
4.967191
11
8.315361
21
5.215955
0
LINE
8
1
62
7
10
8.515786
20
5.091701
11
8.42798
21
5.091701
0
LINE
8
1
62
7
10
8.315361
20
5.215955
11
8.352773
21
4.967191
0
LINE
8
1
62
7
10
8.42798
20
5.091701
11
8.353512
21
4.967084
0
LINE
8
1
62
7
10
8.352774
20
4.96719
11
8.352905
21
4.966385
0
LINE
8
1
62
7
10
8.802817
20
5.096629
11
8.516726
21
5.096629
0
LINE
8
1
62
7
10
8.824824
20
4.591011
11
8.824824
21
5.096629
0
LINE
8
1
62
7
10
11.75176
20
4.510112
11
10.2993
21
4.510112
0
LINE
8
1
62
7
10
10.16091
20
4.786593
11
10.40967
21
4.824005
0
LINE
8
1
62
7
10
10.40967
20
4.711769
11
10.16091
21
4.786593
0
LINE
8
1
62
7
10
10.16091
20
4.674357
11
10.40967
21
4.711769
0
LINE
8
1
62
7
10
10.28529
20
4.600634
11
10.16091
21
4.674357
0
LINE
8
1
62
7
10
10.28529
20
4.523609
11
10.28529
21
4.600634
0
LINE
8
1
62
7
10
10.40967
20
4.824005
11
10.16091
21
4.898829
0
LINE
8
1
62
7
10
10.16091
20
4.898829
11
10.40967
21
4.936241
0
LINE
8
1
62
7
10
10.28516
20
5.099254
11
10.28516
21
5.011448
0
LINE
8
1
62
7
10
10.40967
20
4.936242
11
10.41048
21
4.936373
0
LINE
8
1
62
7
10
10.28516
20
5.011448
11
10.40978
21
4.93698
0
ENDSEC
0
EOF
