  0
SECTION
  2
HEADER
  9
$ACADVER
  1
AC1006
  9
$INSBASE
 10
0.0
 20
0.0
 30
0.0
  9
$EXTMIN
 10
0.0
 20
0.0
  9
$EXTMAX
 10
11.0
 20
8.5
  9
$LIMMIN
 10
0.0
 20
0.0
  9
$LIMMAX
 10
11.0
 20
8.5
  9
$ORTHOMODE
 70
     0
  9
$REGENMODE
 70
     1
  9
$FILLMODE
 70
     1
  9
$QTEXTMODE
 70
     0
  9
$MIRRTEXT
 70
     0
  9
$DRAGMODE
 70
     2
  9
$LTSCALE
 40
1.0
  9
$OSMODE
 70
     0
  9
$ATTMODE
 70
     1
  9
$TEXTSIZE
 40
0.125
  9
$TRACEWID
 40
0.1
  9
$TEXTSTYLE
  7
STANDARD
  9
$CLAYER
  8
GREEN
  9
$CELTYPE
  6
BYLAYER
  9
$CECOLOR
 62
   256
  9
$DIMSCALE
 40
1.0
  9
$DIMASZ
 40
0.18
  9
$DIMEXO
 40
0.0625
  9
$DIMDLI
 40
0.38
  9
$DIMRND
 40
0.0
  9
$DIMDLE
 40
0.0
  9
$DIMEXE
 40
0.18
  9
$DIMTP
 40
0.0
  9
$DIMTM
 40
0.0
  9
$DIMTXT
 40
0.18
  9
$DIMCEN
 40
0.09
  9
$DIMTSZ
 40
0.0
  9
$DIMTOL
 70
     0
  9
$DIMLIM
 70
     0
  9
$DIMTIH
 70
     0
  9
$DIMTOH
 70
     1
  9
$DIMSE1
 70
     0
  9
$DIMSE2
 70
     0
  9
$DIMTAD
 70
     0
  9
$DIMZIN
 70
     0
  9
$DIMBLK
  1

  9
$DIMASO
 70
     1
  9
$DIMSHO
 70
     1
  9
$DIMPOST
  1

  9
$DIMAPOST
  1

  9
$DIMALT
 70
     0
  9
$DIMALTD
 70
     2
  9
$DIMALTF
 40
25.4
  9
$DIMLFAC
 40
1.0
  9
$DIMTOFL
 70
     0
  9
$DIMTVP
 40
0.0
  9
$DIMTIX
 70
     0
  9
$DIMSOXD
 70
     0
  9
$DIMSAH
 70
     0
  9
$DIMBLK1
  1

  9
$DIMBLK2
  1

  9
$LUNITS
 70
     2
  9
$LUPREC
 70
     4
  9
$AXISMODE
 70
     0
  9
$AXISUNIT
 10
0.0
 20
0.0
  9
$SKETCHINC
 40
0.1
  9
$FILLETRAD
 40
0.5
  9
$AUNITS
 70
     0
  9
$AUPREC
 70
     0
  9
$MENU
  1
acad
  9
$ELEVATION
 40
0.0
  9
$THICKNESS
 40
0.0
  9
$LIMCHECK
 70
     0
  9
$BLIPMODE
 70
     1
  9
$CHAMFERA
 40
0.0
  9
$CHAMFERB
 40
0.0
  9
$SKPOLY
 70
     0
  9
$TDCREATE
 40
2449219.3931164350
  9
$TDUPDATE
 40
2449381.6050309027
  9
$TDINDWG
 40
0.0680712963
  9
$TDUSRTIMER
 40
0.0680712963
  9
$USRTIMER
 70
     1
  9
$ANGBASE
 50
0.0
  9
$ANGDIR
 70
     0
  9
$PDMODE
 70
     0
  9
$PDSIZE
 40
0.0
  9
$PLINEWID
 40
0.0
  9
$COORDS
 70
     2
  9
$SPLFRAME
 70
     0
  9
$SPLINETYPE
 70
     6
  9
$SPLINESEGS
 70
     8
  9
$ATTDIA
 70
     0
  9
$ATTREQ
 70
     1
  9
$HANDLING
 70
     0
  9
$HANDSEED
  5
0
  9
$SURFTAB1
 70
     6
  9
$SURFTAB2
 70
     6
  9
$SURFTYPE
 70
     6
  9
$SURFU
 70
     6
  9
$SURFV
 70
     6
  9
$FLATLAND
 70
     0
  9
$UCSNAME
  2

  9
$UCSORG
 10
0.0
 20
0.0
 30
0.0
  9
$UCSXDIR
 10
1.0
 20
0.0
 30
0.0
  9
$UCSYDIR
 10
0.0
 20
1.0
 30
0.0
  9
$USERI1
 70
     0
  9
$USERI2
 70
     0
  9
$USERI3
 70
     0
  9
$USERI4
 70
     0
  9
$USERI5
 70
     0
  9
$USERR1
 40
0.0
  9
$USERR2
 40
0.0
  9
$USERR3
 40
0.0
  9
$USERR4
 40
0.0
  9
$USERR5
 40
0.0
  9
$WORLDVIEW
 70
     1
  0
ENDSEC
  0
SECTION
  2
TABLES
  0
TABLE
  2
VPORT
 70
     2
  0
VPORT
  2
*ACTIVE
 70
     0
 10
0.0
 20
0.0
 11
1.0
 21
1.0
 12
5.868072
 22
4.25
 13
0.0
 23
0.0
 14
0.125
 24
0.125
 15
0.0
 25
0.0
 16
0.0
 26
0.0
 36
1.0
 17
0.0
 27
0.0
 37
0.0
 40
8.5
 41
1.380723
 42
50.0
 43
0.0
 44
0.0
 50
0.0
 51
0.0
 71
     0
 72
   100
 73
     1
 74
     0
 75
     1
 76
     0
 77
     0
 78
     0
  0
ENDTAB
  0
TABLE
  2
LTYPE
 70
     2
  0
LTYPE
  2
CONTINUOUS
 70
    64
  3
Solid line
 72
    65
 73
     0
 40
0.0
  0
LTYPE
  2
DASHED
 70
    64
  3
__ __ __ __ __ __ __ __ __ __ __ __ __ __ __
 72
    65
 73
     2
 40
0.75
 49
0.5
 49
-0.25
  0
ENDTAB
  0
TABLE
  2
LAYER
 70
     8
  0
LAYER
  2
0
 70
    64
 62
     7
  6
CONTINUOUS
  0
LAYER
  2
DIM
 70
    64
 62
     1
  6
CONTINUOUS
  0
LAYER
  2
DASHED
 70
    64
 62
     7
  6
DASHED
  0
LAYER
  2
GREEN
 70
    64
 62
     3
  6
CONTINUOUS
  0
LAYER
  2
BLUE
 70
    64
 62
    5
  6
CONTINUOUS
  0
LAYER
  2
YELLOW
 70
    64
 62
     2
  6
CONTINUOUS
  0
LAYER
  2
CYAN
 70
    64
 62
     4
  6
CONTINUOUS
  0
LAYER
  2
DEFPOINTS
 70
     0
 62
    -7
  6
CONTINUOUS
  0
ENDTAB
  0
TABLE
  2
STYLE
 70
     3
  0
STYLE
  2
STANDARD
 70
    64
 40
0.0
 41
1.0
 50
0.0
 71
     0
 42
0.125
  3
txt
  4

  0
STYLE
  2
ROMANT
 70
    64
 40
0.0
 41
1.0
 50
0.0
 71
     0
 42
0.08
  3
romant
  4

  0
STYLE
  2
ITALICT
 70
     0
 40
0.0
 41
1.0
 50
0.0
 71
     0
 42
0.04
  3
italict
  4

  0
ENDTAB
  0
TABLE
  2
VIEW
 70
     0
  0
ENDTAB
  0
TABLE
  2
UCS
 70
     0
  0
ENDTAB
  0
TABLE
  2
DWGMGR
 70
     0
  0
ENDTAB
  0
ENDSEC
  0
SECTION
  2
BLOCKS
  0
BLOCK
  8
0
  2
BORDER
 70
    64
 10
0.0
 20
0.0
 30
0.0
  0
LINE
  8
0
 10
0.0
 20
0.0
 30
0.0
 11
1.0
 21
0.0
 31
0.0
  0
LINE
  8
0
 10
1.0
 20
0.0
 30
0.0
 11
1.0
 21
1.0
 31
0.0
  0
LINE
  8
0
 10
1.0
 20
1.0
 30
0.0
 11
0.0
 21
1.0
 31
0.0
  0
LINE
  8
0
 10
0.0
 20
1.0
 30
0.0
 11
0.0
 21
0.0
 31
0.0
  0
ENDBLK
  8
0
  0
BLOCK
  8
0
  2
COPYRIGHT
 70
     0
 10
0.0
 20
0.0
 30
0.0
  0
POLYLINE
  8
0
 66
     1
 10
0.0
 20
0.0
 30
0.0
 40
0.01
 41
0.01
  0
VERTEX
  8
0
 10
-0.081877
 20
0.002646
 30
0.0
 42
1.00411
  0
VERTEX
  8
0
 10
0.088831
 20
0.003346
 30
0.0
 42
0.999748
  0
VERTEX
  8
0
 10
-0.081875
 20
0.001989
 30
0.0
 42
0.062826
  0
SEQEND
  8
0
  0
TEXT
  8
0
 10
-0.036234
 20
-0.038697
 30
0.0
 40
0.08
  1
C
  7
ROMANT
 72
     1
 11
0.003766
 21
-0.038697
 31
0.0
  0
ENDBLK
  8
0
  0
BLOCK
  8
0
  2
ST
 70
     0
 10
0.0
 20
0.0
 30
0.0
  0
LINE
  8
0
 10
0.305472
 20
-0.529585
 30
0.0
 11
0.309991
 21
-0.526637
 31
0.0
  0
ARC
  8
0
 10
-0.29
 20
-0.53
 30
0.0
 40
0.6
 50
0.32113
 51
60.945396
  0
LINE
  8
0
 10
-0.303073
 20
-0.53267
 30
0.0
 11
-0.31
 21
-0.53
 31
0.0
  0
ARC
  8
0
 10
-0.001422
 20
-0.014012
 30
0.0
 40
0.6
 50
239.81779
 51
300.763186
  0
ARC
  8
0
 10
0.29
 20
-0.53
 30
0.0
 40
0.6
 50
119.054604
 51
180.0
  0
ARC
  8
0
 10
-0.29
 20
-0.53
 30
0.0
 40
0.6
 50
0.0
 51
0.005254
  0
ENDBLK
  8
0
  0
BLOCK
  8
GREEN
  2
LOGO
 70
    64
 10
0.0
 20
0.0
 30
0.0
  0
ARC
  8
BLUE
 10
-0.552506
 20
-0.221599
 30
0.0
 40
1.08
 50
0.0
 51
0.005254
  0
ARC
  8
BLUE
 10
0.491494
 20
-0.221599
 30
0.0
 40
1.08
 50
119.054604
 51
180.0
  0
ARC
  8
BLUE
 10
-0.033065
 20
0.70718
 30
0.0
 40
1.08
 50
239.81779
 51
300.763186
  0
LINE
  8
BLUE
 10
-0.576037
 20
-0.226406
 30
0.0
 11
-0.588506
 21
-0.221599
 31
0.0
  0
ARC
  8
BLUE
 10
-0.552506
 20
-0.221599
 30
0.0
 40
1.08
 50
0.32113
 51
60.945396
  0
LINE
  8
BLUE
 10
0.519345
 20
-0.220852
 30
0.0
 11
0.527477
 21
-0.215546
 31
0.0
  0
ARC
  8
BLUE
 10
-0.500306
 20
-0.194851
 30
0.0
 40
0.972
 50
0.0
 51
0.005254
  0
ARC
  8
BLUE
 10
0.439294
 20
-0.194851
 30
0.0
 40
0.972
 50
119.054604
 51
180.0
  0
ARC
  8
BLUE
 10
-0.032809
 20
0.64105
 30
0.0
 40
0.972
 50
239.81779
 51
300.763186
  0
LINE
  8
BLUE
 10
-0.521484
 20
-0.199177
 30
0.0
 11
-0.532706
 21
-0.194851
 31
0.0
  0
ARC
  8
BLUE
 10
-0.500306
 20
-0.194851
 30
0.0
 40
0.972
 50
0.32113
 51
60.945396
  0
LINE
  8
BLUE
 10
0.46436
 20
-0.194179
 30
0.0
 11
0.471679
 21
-0.189403
 31
0.0
  0
LINE
  8
BLUE
 10
-0.225284
 20
0.104528
 30
0.0
 11
-0.223555
 21
0.104528
 31
0.0
  0
POLYLINE
  8
BLUE
 66
     1
 10
0.0
 20
0.0
 30
0.0
 75
     6
  0
VERTEX
  8
BLUE
 10
-0.254253
 20
0.07871
 30
0.0
  0
VERTEX
  8
BLUE
 10
-0.254928
 20
0.077813
 30
0.0
  0
VERTEX
  8
BLUE
 10
-0.257515
 20
0.07438
 30
0.0
  0
VERTEX
  8
BLUE
 10
-0.260192
 20
0.070779
 30
0.0
  0
VERTEX
  8
BLUE
 10
-0.262973
 20
0.066943
 30
0.0
  0
VERTEX
  8
BLUE
 10
-0.265871
 20
0.062803
 30
0.0
  0
VERTEX
  8
BLUE
 10
-0.268899
 20
0.05829
 30
0.0
  0
VERTEX
  8
BLUE
 10
-0.272072
 20
0.05331
 30
0.0
  0
VERTEX
  8
BLUE
 10
-0.275405
 20
0.047667
 30
0.0
  0
VERTEX
  8
BLUE
 10
-0.278913
 20
0.041138
 30
0.0
  0
VERTEX
  8
BLUE
 10
-0.282613
 20
0.033501
 30
0.0
  0
VERTEX
  8
BLUE
 10
-0.28652
 20
0.024536
 30
0.0
  0
VERTEX
  8
BLUE
 10
-0.29065
 20
0.014019
 30
0.0
  0
VERTEX
  8
BLUE
 10
-0.295018
 20
0.001729
 30
0.0
  0
VERTEX
  8
BLUE
 10
-0.299641
 20
-0.012556
 30
0.0
  0
SEQEND
  8
BLUE
  0
POLYLINE
  8
BLUE
 66
     1
 10
0.0
 20
0.0
 30
0.0
 75
     6
  0
VERTEX
  8
BLUE
 10
-0.167644
 20
0.174893
 30
0.0
  0
VERTEX
  8
BLUE
 10
-0.184278
 20
0.165264
 30
0.0
  0
VERTEX
  8
BLUE
 10
-0.197341
 20
0.156634
 30
0.0
  0
VERTEX
  8
BLUE
 10
-0.207344
 20
0.148896
 30
0.0
  0
VERTEX
  8
BLUE
 10
-0.214795
 20
0.141939
 30
0.0
  0
VERTEX
  8
BLUE
 10
-0.220204
 20
0.135657
 30
0.0
  0
VERTEX
  8
BLUE
 10
-0.22408
 20
0.129939
 30
0.0
  0
VERTEX
  8
BLUE
 10
-0.226932
 20
0.124678
 30
0.0
  0
VERTEX
  8
BLUE
 10
-0.229271
 20
0.119764
 30
0.0
  0
VERTEX
  8
BLUE
 10
-0.231521
 20
0.115104
 30
0.0
  0
VERTEX
  8
BLUE
 10
-0.233772
 20
0.110667
 30
0.0
  0
VERTEX
  8
BLUE
 10
-0.233812
 20
0.110593
 30
0.0
  0
SEQEND
  8
BLUE
  0
POLYLINE
  8
BLUE
 66
     1
 10
0.0
 20
0.0
 30
0.0
 75
     6
  0
VERTEX
  8
BLUE
 10
-0.270112
 20
0.136413
 30
0.0
  0
VERTEX
  8
BLUE
 10
-0.26201
 20
0.144011
 30
0.0
  0
VERTEX
  8
BLUE
 10
-0.249836
 20
0.152904
 30
0.0
  0
VERTEX
  8
BLUE
 10
-0.23498
 20
0.161283
 30
0.0
  0
VERTEX
  8
BLUE
 10
-0.217005
 20
0.169054
 30
0.0
  0
VERTEX
  8
BLUE
 10
-0.195474
 20
0.176121
 30
0.0
  0
VERTEX
  8
BLUE
 10
-0.169949
 20
0.182391
 30
0.0
  0
SEQEND
  8
BLUE
  0
POLYLINE
  8
BLUE
 66
     1
 10
0.0
 20
0.0
 30
0.0
 75
     6
  0
VERTEX
  8
BLUE
 10
-0.307711
 20
-0.002751
 30
0.0
  0
VERTEX
  8
BLUE
 10
-0.308154
 20
0.019445
 30
0.0
  0
VERTEX
  8
BLUE
 10
-0.307749
 20
0.038713
 30
0.0
  0
VERTEX
  8
BLUE
 10
-0.306482
 20
0.055454
 30
0.0
  0
VERTEX
  8
BLUE
 10
-0.304342
 20
0.070066
 30
0.0
  0
VERTEX
  8
BLUE
 10
-0.301317
 20
0.082947
 30
0.0
  0
VERTEX
  8
BLUE
 10
-0.297396
 20
0.094497
 30
0.0
  0
VERTEX
  8
BLUE
 10
-0.292566
 20
0.105115
 30
0.0
  0
VERTEX
  8
BLUE
 10
-0.291066
 20
0.107746
 30
0.0
  0
SEQEND
  8
BLUE
  0
LINE
  8
BLUE
 10
-0.273126
 20
0.138557
 30
0.0
 11
-0.225284
 21
0.104528
 31
0.0
  0
LINE
  8
BLUE
 10
-0.29503
 20
0.110872
 30
0.0
 11
-0.273126
 21
0.138557
 31
0.0
  0
LINE
  8
BLUE
 10
-0.246035
 20
0.072229
 30
0.0
 11
-0.29503
 21
0.110872
 31
0.0
  0
LINE
  8
BLUE
 10
-0.223555
 20
0.104528
 30
0.0
 11
-0.246035
 21
0.072229
 31
0.0
  0
LINE
  8
BLUE
 10
-0.169949
 20
0.182391
 30
0.0
 11
-0.167644
 21
0.174893
 31
0.0
  0
LINE
  8
BLUE
 10
-0.307711
 20
-0.002751
 30
0.0
 11
-0.299641
 21
-0.012556
 31
0.0
  0
LINE
  8
BLUE
 10
0.170877
 20
0.075808
 30
0.0
 11
0.169108
 21
0.075231
 31
0.0
  0
ARC
  8
BLUE
 10
0.194357
 20
0.071831
 30
0.0
 40
0.015
 50
220.664368
 51
303.799412
  0
ARC
  8
BLUE
 10
0.218641
 20
0.088088
 30
0.0
 40
0.015
 50
303.799412
 51
36.119291
  0
ARC
  8
BLUE
 10
0.179904
 20
0.141172
 30
0.0
 40
0.015
 50
36.119291
 51
122.084776
  0
ARC
  8
BLUE
 10
0.150581
 20
0.122789
 30
0.0
 40
0.015
 50
122.084776
 51
220.664368
  0
LINE
  8
BLUE
 10
0.171936
 20
0.153881
 30
0.0
 11
0.142614
 21
0.135498
 31
0.0
  0
LINE
  8
BLUE
 10
0.230758
 20
0.09693
 30
0.0
 11
0.19202
 21
0.150014
 31
0.0
  0
LINE
  8
BLUE
 10
0.202701
 20
0.059367
 30
0.0
 11
0.226985
 21
0.075623
 31
0.0
  0
LINE
  8
BLUE
 10
0.186652
 20
0.044473
 30
0.0
 11
0.186652
 21
0.044473
 31
0.0
  0
LINE
  8
BLUE
 10
0.139203
 20
0.113015
 30
0.0
 11
0.182979
 21
0.062057
 31
0.0
  0
LINE
  8
BLUE
 10
0.156064
 20
-0.140773
 30
0.0
 11
0.169108
 21
-0.116331
 31
0.0
  0
LINE
  8
BLUE
 10
-0.239227
 20
-0.115327
 30
0.0
 11
-0.226183
 21
-0.140773
 31
0.0
  0
LINE
  8
BLUE
 10
0.055696
 20
-0.043128
 30
0.0
 11
0.169108
 21
-0.116331
 31
0.0
  0
LINE
  8
BLUE
 10
0.055696
 20
-0.076606
 30
0.0
 11
0.156064
 21
-0.140773
 31
0.0
  0
LINE
  8
BLUE
 10
-0.125815
 20
-0.076606
 30
0.0
 11
-0.226183
 21
-0.140773
 31
0.0
  0
LINE
  8
BLUE
 10
-0.125815
 20
-0.043128
 30
0.0
 11
-0.239227
 21
-0.115327
 31
0.0
  0
LINE
  8
BLUE
 10
-0.125815
 20
0.03651
 30
0.0
 11
-0.226183
 21
0.100676
 31
0.0
  0
LINE
  8
BLUE
 10
-0.125815
 20
0.003031
 30
0.0
 11
-0.242237
 21
0.077239
 31
0.0
  0
LINE
  8
BLUE
 10
0.055696
 20
0.003031
 30
0.0
 11
0.169108
 21
0.075231
 31
0.0
  0
LINE
  8
BLUE
 10
0.055696
 20
0.03651
 30
0.0
 11
0.152022
 21
0.098092
 31
0.0
  0
CIRCLE
  8
BLUE
 10
-0.005617
 20
-0.035218
 30
0.0
 40
0.004987
  0
ARC
  8
BLUE
 10
-0.035519
 20
-0.056162
 30
0.0
 40
0.00897
 50
0.0
 51
180.0
  0
ARC
  8
BLUE
 10
-0.035519
 20
-0.088476
 30
0.0
 40
0.00897
 50
180.0
 51
0.0
  0
LINE
  8
BLUE
 10
-0.025651
 20
-0.057957
 30
0.0
 11
-0.025651
 21
-0.086681
 31
0.0
  0
LINE
  8
BLUE
 10
-0.043592
 20
-0.057957
 30
0.0
 11
-0.043592
 21
-0.086681
 31
0.0
  0
CIRCLE
  8
BLUE
 10
-0.036308
 20
-0.022077
 30
0.0
 40
0.019529
  0
LINE
  8
BLUE
 10
-0.125059
 20
-0.102548
 30
0.0
 11
-0.125059
 21
0.062452
 31
0.0
  0
LINE
  8
BLUE
 10
0.054941
 20
-0.102548
 30
0.0
 11
-0.125059
 21
-0.102548
 31
0.0
  0
LINE
  8
BLUE
 10
0.054941
 20
0.062452
 30
0.0
 11
0.054941
 21
-0.102548
 31
0.0
  0
LINE
  8
BLUE
 10
-0.125059
 20
0.062452
 30
0.0
 11
0.054941
 21
0.062452
 31
0.0
  0
ENDBLK
  8
GREEN
  0
ENDSEC
  0
SECTION
  2
ENTITIES
  0
INSERT
  8
0
  2
BORDER
 10
0.0
 20
0.0
 30
0.0
 41
11.0
 42
8.5
 43
11.0
  0
TEXT
  8
0
 10
6.75
 20
8.0
 30
0.0
 40
0.1
  1
LINE
  0
TEXT
  8
0
 10
6.625
 20
7.333333
 30
0.0
 40
0.1
  1
PLINE
  0
TEXT
  8
YELLOW
 10
7.75
 20
5.666667
 30
0.0
 40
0.1
  1
CIRCLE
  0
TEXT
  8
0
 10
9.75
 20
5.75
 30
0.0
 40
0.1
  1
ARC
  0
TEXT
  8
GREEN
 10
9.875
 20
4.458333
 30
0.0
 40
0.1
  1
POINT
  0
TEXT
  8
BLUE
 10
6.75
 20
4.416667
 30
0.0
 40
0.1
  1
SOLID
  0
TEXT
  8
YELLOW
 10
6.75
 20
3.5
 30
0.0
 40
0.1
  1
TRACE
  0
LINE
  8
0
 10
7.5
 20
8.0
 30
0.0
 11
8.75
 21
8.0
 31
0.0
  0
POLYLINE
  8
GREEN
 66
     1
 10
0.0
 20
0.0
 30
0.0
  0
VERTEX
  8
GREEN
 10
7.375
 20
7.375
 30
0.0
  0
VERTEX
  8
GREEN
 10
7.625
 20
7.375
 30
0.0
  0
VERTEX
  8
GREEN
 10
7.75
 20
7.5
 30
0.0
  0
VERTEX
  8
GREEN
 10
7.875
 20
7.25
 30
0.0
  0
VERTEX
  8
GREEN
 10
8.0
 20
7.5
 30
0.0
  0
VERTEX
  8
GREEN
 10
8.125
 20
7.25
 30
0.0
  0
VERTEX
  8
GREEN
 10
8.25
 20
7.5
 30
0.0
  0
VERTEX
  8
GREEN
 10
8.375
 20
7.25
 30
0.0
  0
VERTEX
  8
GREEN
 10
8.5
 20
7.375
 30
0.0
  0
VERTEX
  8
GREEN
 10
8.75
 20
7.375
 30
0.0
  0
SEQEND
  8
GREEN
  0
POLYLINE
  8
GREEN
 66
     1
 10
0.0
 20
0.0
 30
0.0
 70
     4
 75
     6
  0
VERTEX
  8
GREEN
 10
7.375
 20
6.875
 30
0.0
 70
    16
  0
VERTEX
  8
GREEN
 10
7.375
 20
6.875
 30
0.0
 70
     8
  0
VERTEX
  8
GREEN
 10
7.460307
 20
6.877665
 30
0.0
 70
     8
  0
VERTEX
  8
GREEN
 10
7.530111
 20
6.884603
 30
0.0
 70
     8
  0
VERTEX
  8
GREEN
 10
7.586487
 20
6.894226
 30
0.0
 70
     8
  0
VERTEX
  8
GREEN
 10
7.63151
 20
6.904948
 30
0.0
 70
     8
  0
VERTEX
  8
GREEN
 10
7.667257
 20
6.915181
 30
0.0
 70
     8
  0
VERTEX
  8
GREEN
 10
7.695801
 20
6.92334
 30
0.0
 70
     8
  0
VERTEX
  8
GREEN
 10
7.719218
 20
6.927836
 30
0.0
 70
     8
  0
VERTEX
  8
GREEN
 10
7.739583
 20
6.927083
 30
0.0
 70
     8
  0
VERTEX
  8
GREEN
 10
7.758647
 20
6.920064
 30
0.0
 70
     8
  0
VERTEX
  8
GREEN
 10
7.776855
 20
6.90804
 30
0.0
 70
     8
  0
VERTEX
  8
GREEN
 10
7.794332
 20
6.892843
 30
0.0
 70
     8
  0
VERTEX
  8
GREEN
 10
7.811198
 20
6.876302
 30
0.0
 70
     8
  0
VERTEX
  8
GREEN
 10
7.827576
 20
6.86025
 30
0.0
 70
     8
  0
VERTEX
  8
GREEN
 10
7.843587
 20
6.846517
 30
0.0
 70
     8
  0
VERTEX
  8
GREEN
 10
7.859355
 20
6.836934
 30
0.0
 70
     8
  0
VERTEX
  8
GREEN
 10
7.875
 20
6.833333
 30
0.0
 70
     8
  0
VERTEX
  8
GREEN
 10
7.890625
 20
6.836914
 30
0.0
 70
     8
  0
VERTEX
  8
GREEN
 10
7.90625
 20
6.846354
 30
0.0
 70
     8
  0
VERTEX
  8
GREEN
 10
7.921875
 20
6.859701
 30
0.0
 70
     8
  0
VERTEX
  8
GREEN
 10
7.9375
 20
6.875
 30
0.0
 70
     8
  0
VERTEX
  8
GREEN
 10
7.953125
 20
6.890299
 30
0.0
 70
     8
  0
VERTEX
  8
GREEN
 10
7.96875
 20
6.903646
 30
0.0
 70
     8
  0
VERTEX
  8
GREEN
 10
7.984375
 20
6.913086
 30
0.0
 70
     8
  0
VERTEX
  8
GREEN
 10
8.0
 20
6.916667
 30
0.0
 70
     8
  0
VERTEX
  8
GREEN
 10
8.015625
 20
6.913086
 30
0.0
 70
     8
  0
VERTEX
  8
GREEN
 10
8.03125
 20
6.903646
 30
0.0
 70
     8
  0
VERTEX
  8
GREEN
 10
8.046875
 20
6.890299
 30
0.0
 70
     8
  0
VERTEX
  8
GREEN
 10
8.0625
 20
6.875
 30
0.0
 70
     8
  0
VERTEX
  8
GREEN
 10
8.078125
 20
6.859701
 30
0.0
 70
     8
  0
VERTEX
  8
GREEN
 10
8.09375
 20
6.846354
 30
0.0
 70
     8
  0
VERTEX
  8
GREEN
 10
8.109375
 20
6.836914
 30
0.0
 70
     8
  0
VERTEX
  8
GREEN
 10
8.125
 20
6.833333
 30
0.0
 70
     8
  0
VERTEX
  8
GREEN
 10
8.140625
 20
6.836914
 30
0.0
 70
     8
  0
VERTEX
  8
GREEN
 10
8.15625
 20
6.846354
 30
0.0
 70
     8
  0
VERTEX
  8
GREEN
 10
8.171875
 20
6.859701
 30
0.0
 70
     8
  0
VERTEX
  8
GREEN
 10
8.1875
 20
6.875
 30
0.0
 70
     8
  0
VERTEX
  8
GREEN
 10
8.203125
 20
6.890299
 30
0.0
 70
     8
  0
VERTEX
  8
GREEN
 10
8.21875
 20
6.903646
 30
0.0
 70
     8
  0
VERTEX
  8
GREEN
 10
8.234375
 20
6.913086
 30
0.0
 70
     8
  0
VERTEX
  8
GREEN
 10
8.25
 20
6.916667
 30
0.0
 70
     8
  0
VERTEX
  8
GREEN
 10
8.265645
 20
6.913066
 30
0.0
 70
     8
  0
VERTEX
  8
GREEN
 10
8.281413
 20
6.903483
 30
0.0
 70
     8
  0
VERTEX
  8
GREEN
 10
8.297424
 20
6.88975
 30
0.0
 70
     8
  0
VERTEX
  8
GREEN
 10
8.313802
 20
6.873698
 30
0.0
 70
     8
  0
VERTEX
  8
GREEN
 10
8.330668
 20
6.857157
 30
0.0
 70
     8
  0
VERTEX
  8
GREEN
 10
8.348145
 20
6.84196
 30
0.0
 70
     8
  0
VERTEX
  8
GREEN
 10
8.366353
 20
6.829936
 30
0.0
 70
     8
  0
VERTEX
  8
GREEN
 10
8.385417
 20
6.822917
 30
0.0
 70
     8
  0
VERTEX
  8
GREEN
 10
8.405782
 20
6.822164
 30
0.0
 70
     8
  0
VERTEX
  8
GREEN
 10
8.429199
 20
6.82666
 30
0.0
 70
     8
  0
VERTEX
  8
GREEN
 10
8.457743
 20
6.834819
 30
0.0
 70
     8
  0
VERTEX
  8
GREEN
 10
8.49349
 20
6.845052
 30
0.0
 70
     8
  0
VERTEX
  8
GREEN
 10
8.538513
 20
6.855774
 30
0.0
 70
     8
  0
VERTEX
  8
GREEN
 10
8.594889
 20
6.865397
 30
0.0
 70
     8
  0
VERTEX
  8
GREEN
 10
8.664693
 20
6.872335
 30
0.0
 70
     8
  0
VERTEX
  8
GREEN
 10
8.75
 20
6.875
 30
0.0
 70
     8
  0
VERTEX
  8
GREEN
 10
7.625
 20
6.875
 30
0.0
 70
    16
  0
VERTEX
  8
GREEN
 10
7.75
 20
7.0
 30
0.0
 70
    16
  0
VERTEX
  8
GREEN
 10
7.875
 20
6.75
 30
0.0
 70
    16
  0
VERTEX
  8
GREEN
 10
8.0
 20
7.0
 30
0.0
 70
    16
  0
VERTEX
  8
GREEN
 10
8.125
 20
6.75
 30
0.0
 70
    16
  0
VERTEX
  8
GREEN
 10
8.25
 20
7.0
 30
0.0
 70
    16
  0
VERTEX
  8
GREEN
 10
8.375
 20
6.75
 30
0.0
 70
    16
  0
VERTEX
  8
GREEN
 10
8.5
 20
6.875
 30
0.0
 70
    16
  0
VERTEX
  8
GREEN
 10
8.75
 20
6.875
 30
0.0
 70
    16
  0
SEQEND
  8
GREEN
  0
POLYLINE
  8
BLUE
 66
     1
 10
0.0
 20
0.0
 30
0.0
 40
0.05
 41
0.05
  0
VERTEX
  8
BLUE
 10
8.875
 20
7.375
 30
0.0
  0
VERTEX
  8
BLUE
 10
9.125
 20
7.375
 30
0.0
  0
VERTEX
  8
BLUE
 10
9.25
 20
7.5
 30
0.0
  0
VERTEX
  8
BLUE
 10
9.375
 20
7.25
 30
0.0
  0
VERTEX
  8
BLUE
 10
9.5
 20
7.5
 30
0.0
  0
VERTEX
  8
BLUE
 10
9.625
 20
7.25
 30
0.0
  0
VERTEX
  8
BLUE
 10
9.75
 20
7.5
 30
0.0
  0
VERTEX
  8
BLUE
 10
9.875
 20
7.25
 30
0.0
  0
VERTEX
  8
BLUE
 10
10.0
 20
7.375
 30
0.0
  0
VERTEX
  8
BLUE
 10
10.25
 20
7.375
 30
0.0
  0
SEQEND
  8
BLUE
  0
POLYLINE
  8
BLUE
 66
     1
 10
0.0
 20
0.0
 30
0.0
 70
     4
 40
0.05
 41
0.05
 75
     6
  0
VERTEX
  8
BLUE
 10
8.875
 20
6.875
 30
0.0
 70
    16
  0
VERTEX
  8
BLUE
 10
8.875
 20
6.875
 30
0.0
 70
     8
  0
VERTEX
  8
BLUE
 10
8.960307
 20
6.877665
 30
0.0
 70
     8
  0
VERTEX
  8
BLUE
 10
9.030111
 20
6.884603
 30
0.0
 70
     8
  0
VERTEX
  8
BLUE
 10
9.086487
 20
6.894226
 30
0.0
 70
     8
  0
VERTEX
  8
BLUE
 10
9.13151
 20
6.904948
 30
0.0
 70
     8
  0
VERTEX
  8
BLUE
 10
9.167257
 20
6.915181
 30
0.0
 70
     8
  0
VERTEX
  8
BLUE
 10
9.195801
 20
6.92334
 30
0.0
 70
     8
  0
VERTEX
  8
BLUE
 10
9.219218
 20
6.927836
 30
0.0
 70
     8
  0
VERTEX
  8
BLUE
 10
9.239583
 20
6.927083
 30
0.0
 70
     8
  0
VERTEX
  8
BLUE
 10
9.258647
 20
6.920064
 30
0.0
 70
     8
  0
VERTEX
  8
BLUE
 10
9.276855
 20
6.90804
 30
0.0
 70
     8
  0
VERTEX
  8
BLUE
 10
9.294332
 20
6.892843
 30
0.0
 70
     8
  0
VERTEX
  8
BLUE
 10
9.311198
 20
6.876302
 30
0.0
 70
     8
  0
VERTEX
  8
BLUE
 10
9.327576
 20
6.86025
 30
0.0
 70
     8
  0
VERTEX
  8
BLUE
 10
9.343587
 20
6.846517
 30
0.0
 70
     8
  0
VERTEX
  8
BLUE
 10
9.359355
 20
6.836934
 30
0.0
 70
     8
  0
VERTEX
  8
BLUE
 10
9.375
 20
6.833333
 30
0.0
 70
     8
  0
VERTEX
  8
BLUE
 10
9.390625
 20
6.836914
 30
0.0
 70
     8
  0
VERTEX
  8
BLUE
 10
9.40625
 20
6.846354
 30
0.0
 70
     8
  0
VERTEX
  8
BLUE
 10
9.421875
 20
6.859701
 30
0.0
 70
     8
  0
VERTEX
  8
BLUE
 10
9.4375
 20
6.875
 30
0.0
 70
     8
  0
VERTEX
  8
BLUE
 10
9.453125
 20
6.890299
 30
0.0
 70
     8
  0
VERTEX
  8
BLUE
 10
9.46875
 20
6.903646
 30
0.0
 70
     8
  0
VERTEX
  8
BLUE
 10
9.484375
 20
6.913086
 30
0.0
 70
     8
  0
VERTEX
  8
BLUE
 10
9.5
 20
6.916667
 30
0.0
 70
     8
  0
VERTEX
  8
BLUE
 10
9.515625
 20
6.913086
 30
0.0
 70
     8
  0
VERTEX
  8
BLUE
 10
9.53125
 20
6.903646
 30
0.0
 70
     8
  0
VERTEX
  8
BLUE
 10
9.546875
 20
6.890299
 30
0.0
 70
     8
  0
VERTEX
  8
BLUE
 10
9.5625
 20
6.875
 30
0.0
 70
     8
  0
VERTEX
  8
BLUE
 10
9.578125
 20
6.859701
 30
0.0
 70
     8
  0
VERTEX
  8
BLUE
 10
9.59375
 20
6.846354
 30
0.0
 70
     8
  0
VERTEX
  8
BLUE
 10
9.609375
 20
6.836914
 30
0.0
 70
     8
  0
VERTEX
  8
BLUE
 10
9.625
 20
6.833333
 30
0.0
 70
     8
  0
VERTEX
  8
BLUE
 10
9.640625
 20
6.836914
 30
0.0
 70
     8
  0
VERTEX
  8
BLUE
 10
9.65625
 20
6.846354
 30
0.0
 70
     8
  0
VERTEX
  8
BLUE
 10
9.671875
 20
6.859701
 30
0.0
 70
     8
  0
VERTEX
  8
BLUE
 10
9.6875
 20
6.875
 30
0.0
 70
     8
  0
VERTEX
  8
BLUE
 10
9.703125
 20
6.890299
 30
0.0
 70
     8
  0
VERTEX
  8
BLUE
 10
9.71875
 20
6.903646
 30
0.0
 70
     8
  0
VERTEX
  8
BLUE
 10
9.734375
 20
6.913086
 30
0.0
 70
     8
  0
VERTEX
  8
BLUE
 10
9.75
 20
6.916667
 30
0.0
 70
     8
  0
VERTEX
  8
BLUE
 10
9.765645
 20
6.913066
 30
0.0
 70
     8
  0
VERTEX
  8
BLUE
 10
9.781413
 20
6.903483
 30
0.0
 70
     8
  0
VERTEX
  8
BLUE
 10
9.797424
 20
6.88975
 30
0.0
 70
     8
  0
VERTEX
  8
BLUE
 10
9.813802
 20
6.873698
 30
0.0
 70
     8
  0
VERTEX
  8
BLUE
 10
9.830668
 20
6.857157
 30
0.0
 70
     8
  0
VERTEX
  8
BLUE
 10
9.848145
 20
6.84196
 30
0.0
 70
     8
  0
VERTEX
  8
BLUE
 10
9.866353
 20
6.829936
 30
0.0
 70
     8
  0
VERTEX
  8
BLUE
 10
9.885417
 20
6.822917
 30
0.0
 70
     8
  0
VERTEX
  8
BLUE
 10
9.905782
 20
6.822164
 30
0.0
 70
     8
  0
VERTEX
  8
BLUE
 10
9.929199
 20
6.82666
 30
0.0
 70
     8
  0
VERTEX
  8
BLUE
 10
9.957743
 20
6.834819
 30
0.0
 70
     8
  0
VERTEX
  8
BLUE
 10
9.99349
 20
6.845052
 30
0.0
 70
     8
  0
VERTEX
  8
BLUE
 10
10.038513
 20
6.855774
 30
0.0
 70
     8
  0
VERTEX
  8
BLUE
 10
10.094889
 20
6.865397
 30
0.0
 70
     8
  0
VERTEX
  8
BLUE
 10
10.164693
 20
6.872335
 30
0.0
 70
     8
  0
VERTEX
  8
BLUE
 10
10.25
 20
6.875
 30
0.0
 70
     8
  0
VERTEX
  8
BLUE
 10
9.125
 20
6.875
 30
0.0
 70
    16
  0
VERTEX
  8
BLUE
 10
9.25
 20
7.0
 30
0.0
 70
    16
  0
VERTEX
  8
BLUE
 10
9.375
 20
6.75
 30
0.0
 70
    16
  0
VERTEX
  8
BLUE
 10
9.5
 20
7.0
 30
0.0
 70
    16
  0
VERTEX
  8
BLUE
 10
9.625
 20
6.75
 30
0.0
 70
    16
  0
VERTEX
  8
BLUE
 10
9.75
 20
7.0
 30
0.0
 70
    16
  0
VERTEX
  8
BLUE
 10
9.875
 20
6.75
 30
0.0
 70
    16
  0
VERTEX
  8
BLUE
 10
10.0
 20
6.875
 30
0.0
 70
    16
  0
VERTEX
  8
BLUE
 10
10.25
 20
6.875
 30
0.0
 70
    16
  0
SEQEND
  8
BLUE
  0
CIRCLE
  8
YELLOW
 10
8.0
 20
5.75
 30
0.0
 40
0.625
  0
ARC
  8
BLUE
 10
9.875
 20
5.75
 30
0.0
 40
0.625
 50
90.0
 51
180.0
  0
ARC
  8
0
 10
9.875
 20
5.75
 30
0.0
 40
0.625
 50
270.0
 51
0.0
  0
SOLID
  8
BLUE
 10
7.375
 20
4.625
 30
0.0
 11
7.375
 21
4.25
 31
0.0
 12
7.875
 22
4.625
 32
0.0
 13
7.875
 23
4.25
 33
0.0
  0
SOLID
  8
BLUE
 10
7.875
 20
4.625
 30
0.0
 11
7.875
 21
4.25
 31
0.0
 12
8.25
 22
4.125
 32
0.0
 13
8.375
 23
4.5
 33
0.0
  0
SOLID
  8
BLUE
 10
8.25
 20
4.125
 30
0.0
 11
8.375
 21
4.5
 31
0.0
 12
8.625
 22
4.25
 32
0.0
 13
8.875
 23
4.625
 33
0.0
  0
TRACE
  8
YELLOW
 10
7.375
 20
3.55
 30
0.0
 11
7.375
 21
3.45
 31
0.0
 12
7.854289
 22
3.55
 32
0.0
 13
7.895711
 23
3.45
 33
0.0
  0
TRACE
  8
YELLOW
 10
7.854289
 20
3.55
 30
0.0
 11
7.895711
 21
3.45
 31
0.0
 12
7.979289
 22
3.675
 32
0.0
 13
8.020711
 23
3.575
 33
0.0
  0
TRACE
  8
YELLOW
 10
7.979289
 20
3.675
 30
0.0
 11
8.020711
 21
3.575
 31
0.0
 12
8.145711
 22
3.675
 32
0.0
 13
8.104289
 23
3.575
 33
0.0
  0
TRACE
  8
YELLOW
 10
8.145711
 20
3.675
 30
0.0
 11
8.104289
 21
3.575
 31
0.0
 12
8.270711
 22
3.55
 32
0.0
 13
8.229289
 23
3.45
 33
0.0
  0
TRACE
  8
YELLOW
 10
8.270711
 20
3.55
 30
0.0
 11
8.229289
 21
3.45
 31
0.0
 12
8.375
 22
3.55
 32
0.0
 13
8.375
 23
3.45
 33
0.0
  0
TRACE
  8
YELLOW
 10
8.375
 20
3.55
 30
0.0
 11
8.375
 21
3.45
 31
0.0
 12
8.5
 22
3.55
 32
0.0
 13
8.5
 23
3.45
 33
0.0
  0
TRACE
  8
YELLOW
 10
8.5
 20
3.55
 30
0.0
 11
8.5
 21
3.45
 31
0.0
 12
8.604289
 22
3.55
 32
0.0
 13
8.645711
 23
3.45
 33
0.0
  0
TRACE
  8
YELLOW
 10
8.604289
 20
3.55
 30
0.0
 11
8.645711
 21
3.45
 31
0.0
 12
8.729289
 22
3.675
 32
0.0
 13
8.770711
 23
3.575
 33
0.0
  0
TRACE
  8
YELLOW
 10
8.729289
 20
3.675
 30
0.0
 11
8.770711
 21
3.575
 31
0.0
 12
8.75
 22
3.675
 32
0.0
 13
8.75
 23
3.575
 33
0.0
  0
TRACE
  8
YELLOW
 10
8.75
 20
3.675
 30
0.0
 11
8.75
 21
3.575
 31
0.0
 12
9.0
 22
3.675
 32
0.0
 13
9.0
 23
3.575
 33
0.0
  0
POINT
  8
GREEN
 10
10.039717
 20
4.306417
 30
0.0
  0
POINT
  8
GREEN
 10
10.101356
 20
4.293297
 30
0.0
  0
POINT
  8
GREEN
 10
10.151192
 20
4.309041
 30
0.0
  0
POINT
  8
GREEN
 10
10.20365
 20
4.330034
 30
0.0
  0
POINT
  8
GREEN
 10
10.249551
 20
4.344466
 30
0.0
  0
POINT
  8
GREEN
 10
10.343977
 20
4.370707
 30
0.0
  0
POINT
  8
GREEN
 10
10.358403
 20
4.457301
 30
0.0
  0
POINT
  8
GREEN
 10
10.376763
 20
4.525527
 30
0.0
  0
POINT
  8
GREEN
 10
10.376763
 20
4.584568
 30
0.0
  0
POINT
  8
GREEN
 10
10.326928
 20
4.606873
 30
0.0
  0
POINT
  8
GREEN
 10
10.263978
 20
4.612121
 30
0.0
  0
POINT
  8
GREEN
 10
10.17611
 20
4.614745
 30
0.0
  0
POINT
  8
GREEN
 10
10.073815
 20
4.633114
 30
0.0
  0
POINT
  8
GREEN
 10
9.978078
 20
4.631802
 30
0.0
  0
POINT
  8
GREEN
 10
9.877096
 20
4.612121
 30
0.0
  0
POINT
  8
GREEN
 10
9.850867
 20
4.55308
 30
0.0
  0
POINT
  8
GREEN
 10
9.829883
 20
4.442869
 30
0.0
  0
POINT
  8
GREEN
 10
9.937423
 20
4.3917
 30
0.0
  0
POINT
  8
GREEN
 10
10.102668
 20
4.408756
 30
0.0
  0
POINT
  8
GREEN
 10
10.164306
 20
4.394324
 30
0.0
  0
POINT
  8
GREEN
 10
10.219388
 20
4.421876
 30
0.0
  0
POINT
  8
GREEN
 10
10.020045
 20
4.395636
 30
0.0
  0
POINT
  8
GREEN
 10
9.905948
 20
4.307729
 30
0.0
  0
POINT
  8
GREEN
 10
9.874473
 20
4.362835
 30
0.0
  0
POINT
  8
GREEN
 10
10.034471
 20
4.680347
 30
0.0
  0
POINT
  8
GREEN
 10
9.926931
 20
4.667226
 30
0.0
  0
POINT
  8
GREEN
 10
10.235125
 20
4.664602
 30
0.0
  0
POINT
  8
GREEN
 10
10.123651
 20
4.667226
 30
0.0
  0
POINT
  8
GREEN
 10
10.317748
 20
4.644922
 30
0.0
  0
POINT
  8
GREEN
 10
10.299387
 20
4.402196
 30
0.0
  0
POINT
  8
GREEN
 10
9.972833
 20
4.315602
 30
0.0
  0
LINE
  8
0
 10
9.745924
 20
3.818841
 30
0.0
 11
9.78696
 21
3.921498
 31
0.0
  0
LINE
  8
0
 10
9.78696
 20
3.921498
 30
0.0
 11
10.197314
 21
3.921498
 31
0.0
  0
LINE
  8
0
 10
10.197314
 20
3.921498
 30
0.0
 11
10.299903
 21
3.96256
 31
0.0
  0
LINE
  8
0
 10
10.299903
 20
3.96256
 30
0.0
 11
10.50508
 21
3.96256
 31
0.0
  0
LINE
  8
0
 10
10.50508
 20
3.96256
 30
0.0
 11
10.587151
 21
3.859903
 31
0.0
  0
LINE
  8
0
 10
10.587151
 20
3.859903
 30
0.0
 11
10.607669
 21
3.757246
 31
0.0
  0
LINE
  8
0
 10
10.607669
 20
3.757246
 30
0.0
 11
10.607669
 21
3.654589
 31
0.0
  0
LINE
  8
0
 10
10.607669
 20
3.654589
 30
0.0
 11
10.546116
 21
3.551932
 31
0.0
  0
LINE
  8
0
 10
10.546116
 20
3.551932
 30
0.0
 11
10.443527
 21
3.490338
 31
0.0
  0
LINE
  8
0
 10
10.443527
 20
3.490338
 30
0.0
 11
10.340939
 21
3.469807
 31
0.0
  0
LINE
  8
0
 10
10.340939
 20
3.469807
 30
0.0
 11
10.23835
 21
3.469807
 31
0.0
  0
LINE
  8
0
 10
10.23835
 20
3.469807
 30
0.0
 11
10.135761
 21
3.51087
 31
0.0
  0
LINE
  8
0
 10
10.135761
 20
3.51087
 30
0.0
 11
9.827995
 21
3.51087
 31
0.0
  0
LINE
  8
0
 10
9.827995
 20
3.51087
 30
0.0
 11
9.725407
 21
3.531401
 31
0.0
  0
LINE
  8
0
 10
9.725407
 20
3.531401
 30
0.0
 11
9.663853
 21
3.634058
 31
0.0
  0
LINE
  8
0
 10
9.663853
 20
3.634058
 30
0.0
 11
9.663853
 21
3.736715
 31
0.0
  0
LINE
  8
0
 10
9.663853
 20
3.736715
 30
0.0
 11
9.725407
 21
3.798309
 31
0.0
  0
POLYLINE
  8
BLUE
 66
     1
 10
0.0
 20
0.0
 30
0.0
 70
     1
 75
     6
  0
VERTEX
  8
BLUE
 10
7.375
 20
2.375
 30
0.0
 42
0.170729
  0
VERTEX
  8
BLUE
 10
7.476438
 20
2.26233
 30
0.0
 42
0.104888
  0
VERTEX
  8
BLUE
 10
7.708694
 20
2.19287
 30
0.0
 42
0.066549
 70
     2
 50
355.325421
  0
VERTEX
  8
BLUE
 10
7.970029
 20
2.206293
 30
0.0
 42
0.052692
 50
355.325421
  0
VERTEX
  8
BLUE
 10
8.286255
 20
2.300488
 30
0.0
 42
0.052692
  0
VERTEX
  8
BLUE
 10
8.575807
 20
2.4587
 30
0.0
 42
0.066549
  0
VERTEX
  8
BLUE
 10
8.769355
 20
2.634812
 30
0.0
 42
0.104888
 70
     2
 50
49.914309
  0
VERTEX
  8
BLUE
 10
8.883575
 20
2.848637
 30
0.0
 42
0.170729
 50
49.914309
  0
VERTEX
  8
BLUE
 10
8.875
 20
3.0
 30
0.0
 42
0.170729
  0
VERTEX
  8
BLUE
 10
8.773562
 20
3.11267
 30
0.0
 42
0.104888
  0
VERTEX
  8
BLUE
 10
8.541306
 20
3.18213
 30
0.0
 42
0.066549
 70
     2
 50
175.325421
  0
VERTEX
  8
BLUE
 10
8.279971
 20
3.168707
 30
0.0
 42
0.052692
 50
175.325421
  0
VERTEX
  8
BLUE
 10
7.963745
 20
3.074512
 30
0.0
 42
0.052692
  0
VERTEX
  8
BLUE
 10
7.674193
 20
2.9163
 30
0.0
 42
0.066549
  0
VERTEX
  8
BLUE
 10
7.480645
 20
2.740188
 30
0.0
 42
0.104888
 70
     2
 50
229.914309
  0
VERTEX
  8
BLUE
 10
7.366425
 20
2.526363
 30
0.0
 42
0.170729
 50
229.914309
  0
SEQEND
  8
BLUE
  0
TEXT
  8
BLUE
 10
9.857669
 20
3.695652
 30
0.0
 40
0.1
  1
SKETCH
  0
TEXT
  8
0
 10
7.716851
 20
2.649155
 30
0.0
 40
0.1
  1
ELLIPSE
  0
LINE
  8
0
 10
1.125
 20
3.25
 30
0.0
 11
1.125
 21
0.75
 31
0.0
  0
LINE
  8
0
 10
1.125
 20
0.75
 30
0.0
 11
4.75
 21
0.75
 31
0.0
  0
LINE
  8
0
 10
4.75
 20
0.75
 30
0.0
 11
4.75
 21
2.75
 31
0.0
  0
LINE
  8
0
 10
4.25
 20
3.25
 30
0.0
 11
1.125
 21
3.25
 31
0.0
  0
ARC
  8
0
 10
4.25
 20
2.75
 30
0.0
 40
0.5
 50
0.0
 51
90.0
  0
CIRCLE
  8
0
 10
2.5
 20
2.0
 30
0.0
 40
0.5
  0
LINE
  8
DIM
  6
BYBLOCK
 10
2.5
 20
2.0
 30
0.0
 11
2.726274
 21
1.773726
 31
0.0
  0
SOLID
  8
DIM
  6
BYBLOCK
 10
2.747487
 20
1.794939
 30
0.0
 11
2.705061
 21
1.752513
 31
0.0
 12
2.853553
 22
1.646447
 32
0.0
 13
2.853553
 23
1.646447
 33
0.0
  0
LINE
  8
DIM
  6
BYBLOCK
 10
2.853553
 20
1.646447
 30
0.0
 11
3.108112
 21
1.391888
 31
0.0
  0
LINE
  8
DIM
  6
BYBLOCK
 10
3.108112
 20
1.391888
 30
0.0
 11
3.288112
 21
1.391888
 31
0.0
  0
TEXT
  8
DIM
  6
BYBLOCK
 10
3.468112
 20
1.301888
 30
0.0
 40
0.18
  1
0.500
  0
LINE
  8
DIM
  6
BYBLOCK
 10
2.41
 20
2.0
 30
0.0
 11
2.59
 21
2.0
 31
0.0
  0
LINE
  8
DIM
  6
BYBLOCK
 10
2.5
 20
1.91
 30
0.0
 11
2.5
 21
2.09
 31
0.0
  0
POINT
  8
DASHED
  6
BYBLOCK
 62
     0
 10
2.853553
 20
1.646447
 30
0.0
  0
POINT
  8
DIM
  6
BYBLOCK
 62
     0
 10
2.5
 20
2.0
 30
0.0
  0
LINE
  8
DIM
  6
BYBLOCK
 10
4.25
 20
2.75
 30
0.0
 11
4.536217
 21
2.893108
 31
0.0
  0
SOLID
  8
DIM
  6
BYBLOCK
 10
4.5228
 20
2.919941
 30
0.0
 11
4.549633
 21
2.866276
 31
0.0
 12
4.697214
 22
2.973607
 32
0.0
 13
4.697214
 23
2.973607
 33
0.0
  0
LINE
  8
DIM
  6
BYBLOCK
 10
4.697214
 20
2.973607
 30
0.0
 11
5.146921
 21
3.198461
 31
0.0
  0
LINE
  8
DIM
  6
BYBLOCK
 10
5.146921
 20
3.198461
 30
0.0
 11
5.326921
 21
3.198461
 31
0.0
  0
TEXT
  8
DIM
  6
BYBLOCK
 10
5.506921
 20
3.108461
 30
0.0
 40
0.18
  1
0.500
  0
LINE
  8
DIM
  6
BYBLOCK
 10
4.16
 20
2.75
 30
0.0
 11
4.34
 21
2.75
 31
0.0
  0
LINE
  8
DIM
  6
BYBLOCK
 10
4.25
 20
2.66
 30
0.0
 11
4.25
 21
2.84
 31
0.0
  0
POINT
  8
DASHED
  6
BYBLOCK
 62
     0
 10
4.697214
 20
2.973607
 30
0.0
  0
POINT
  8
DIM
  6
BYBLOCK
 62
     0
 10
4.25
 20
2.75
 30
0.0
  0
LINE
  8
DIM
  6
BYBLOCK
 10
1.125
 20
0.5625
 30
0.0
 11
1.125
 21
0.195
 31
0.0
  0
LINE
  8
DIM
  6
BYBLOCK
 10
4.75
 20
0.5625
 30
0.0
 11
4.75
 21
0.195
 31
0.0
  0
LINE
  8
DIM
  6
BYBLOCK
 10
1.305
 20
0.375
 30
0.0
 11
2.3975
 21
0.375
 31
0.0
  0
LINE
  8
DIM
  6
BYBLOCK
 10
4.57
 20
0.375
 30
0.0
 11
3.4775
 21
0.375
 31
0.0
  0
SOLID
  8
DIM
  6
BYBLOCK
 10
1.305
 20
0.345
 30
0.0
 11
1.305
 21
0.405
 31
0.0
 12
1.125
 22
0.375
 32
0.0
 13
1.125
 23
0.375
 33
0.0
  0
SOLID
  8
DIM
  6
BYBLOCK
 10
4.57
 20
0.345
 30
0.0
 11
4.57
 21
0.405
 31
0.0
 12
4.75
 22
0.375
 32
0.0
 13
4.75
 23
0.375
 33
0.0
  0
TEXT
  8
DIM
  6
BYBLOCK
 10
2.5775
 20
0.285
 30
0.0
 40
0.18
  1
3.625
  0
POINT
  8
DIM
  6
BYBLOCK
 10
1.125
 20
0.625
 30
0.0
  0
POINT
  8
DIM
  6
BYBLOCK
 10
4.75
 20
0.625
 30
0.0
  0
POINT
  8
DIM
  6
BYBLOCK
 10
4.75
 20
0.375
 30
0.0
  0
POINT
  8
DIM
  6
BYBLOCK
 10
1.0
 20
3.25
 30
0.0
  0
POINT
  8
DIM
  6
BYBLOCK
 10
1.0
 20
0.75
 30
0.0
  0
POINT
  8
DIM
  6
BYBLOCK
 10
0.75
 20
0.75
 30
0.0
  0
POINT
  8
0
 10
2.6875
 20
3.25
 30
0.0
  0
LINE
  8
DASHED
 10
8.875
 20
8.0
 30
0.0
 11
10.625
 21
8.0
 31
0.0
  0
TEXT
  8
0
 10
9.466667
 20
8.125
 30
0.0
 40
0.1
  1
DASHED
 72
     1
 11
9.75
 21
8.125
 31
0.0
  0
POLYLINE
  8
0
 66
     1
 10
0.0
 20
0.0
 30
0.0
 70
     1
  0
VERTEX
  8
0
 10
7.625
 20
1.875
 30
0.0
  0
VERTEX
  8
0
 10
7.625
 20
0.375
 30
0.0
  0
VERTEX
  8
0
 10
10.25
 20
0.375
 30
0.0
  0
VERTEX
  8
0
 10
10.25
 20
1.875
 30
0.0
  0
SEQEND
  8
0
  0
POLYLINE
  8
0
 66
     1
 10
0.0
 20
0.0
 30
0.0
 70
     1
  0
VERTEX
  8
0
 10
8.125
 20
1.375
 30
0.0
  0
VERTEX
  8
0
 10
8.125
 20
0.875
 30
0.0
  0
VERTEX
  8
0
 10
9.75
 20
0.875
 30
0.0
  0
VERTEX
  8
0
 10
9.75
 20
1.375
 30
0.0
  0
SEQEND
  8
0
  0
TEXT
  8
0
 10
8.691882
 20
1.069444
 30
0.0
 40
0.1
  1
HATCH
 72
     1
 11
8.925215
 21
1.069444
 31
0.0
  0
LINE
  8
0
 62
     0
 10
8.028175
 20
0.375
 30
0.0
 11
8.131728
 21
0.478553
 31
0.0
  0
LINE
  8
0
 62
     0
 10
8.175922
 20
0.522748
 30
0.0
 11
8.175922
 21
0.522748
 31
0.0
  0
LINE
  8
0
 62
     0
 10
8.220116
 20
0.566942
 30
0.0
 11
8.441087
 21
0.787913
 31
0.0
  0
LINE
  8
0
 62
     0
 10
8.485281
 20
0.832107
 30
0.0
 11
8.485281
 21
0.832107
 31
0.0
  0
LINE
  8
0
 62
     0
 10
9.028175
 20
1.375
 30
0.0
 11
9.059806
 21
1.406631
 31
0.0
  0
LINE
  8
0
 62
     0
 10
9.104
 20
1.450825
 30
0.0
 11
9.104
 21
1.450825
 31
0.0
  0
LINE
  8
0
 62
     0
 10
9.148194
 20
1.495019
 30
0.0
 11
9.369165
 21
1.71599
 31
0.0
  0
LINE
  8
0
 62
     0
 10
9.413359
 20
1.760184
 30
0.0
 11
9.413359
 21
1.760184
 31
0.0
  0
LINE
  8
0
 62
     0
 10
9.457553
 20
1.804379
 30
0.0
 11
9.528175
 21
1.875
 31
0.0
  0
LINE
  8
0
 62
     0
 10
7.851398
 20
0.375
 30
0.0
 11
7.88866
 21
0.412262
 31
0.0
  0
LINE
  8
0
 62
     0
 10
7.932854
 20
0.456456
 30
0.0
 11
7.932854
 21
0.456456
 31
0.0
  0
LINE
  8
0
 62
     0
 10
7.977048
 20
0.50065
 30
0.0
 11
8.198019
 21
0.721621
 31
0.0
  0
LINE
  8
0
 62
     0
 10
8.242213
 20
0.765816
 30
0.0
 11
8.242213
 21
0.765816
 31
0.0
  0
LINE
  8
0
 62
     0
 10
8.286408
 20
0.81001
 30
0.0
 11
8.351398
 21
0.875
 31
0.0
  0
LINE
  8
0
 62
     0
 10
8.860932
 20
1.384534
 30
0.0
 11
8.860932
 21
1.384534
 31
0.0
  0
LINE
  8
0
 62
     0
 10
8.905126
 20
1.428728
 30
0.0
 11
9.126097
 21
1.649699
 31
0.0
  0
LINE
  8
0
 62
     0
 10
9.170291
 20
1.693893
 30
0.0
 11
9.170291
 21
1.693893
 31
0.0
  0
LINE
  8
0
 62
     0
 10
9.214485
 20
1.738087
 30
0.0
 11
9.351398
 21
1.875
 31
0.0
  0
LINE
  8
0
 62
     0
 10
7.689786
 20
0.390165
 30
0.0
 11
7.689786
 21
0.390165
 31
0.0
  0
LINE
  8
0
 62
     0
 10
7.73398
 20
0.434359
 30
0.0
 11
7.954951
 21
0.65533
 31
0.0
  0
LINE
  8
0
 62
     0
 10
7.999145
 20
0.699524
 30
0.0
 11
7.999145
 21
0.699524
 31
0.0
  0
LINE
  8
0
 62
     0
 10
8.04334
 20
0.743718
 30
0.0
 11
8.174621
 21
0.875
 31
0.0
  0
LINE
  8
0
 62
     0
 10
8.674621
 20
1.375
 30
0.0
 11
8.883029
 21
1.583408
 31
0.0
  0
LINE
  8
0
 62
     0
 10
8.927223
 20
1.627602
 30
0.0
 11
8.927223
 21
1.627602
 31
0.0
  0
LINE
  8
0
 62
     0
 10
8.971417
 20
1.671796
 30
0.0
 11
9.174621
 21
1.875
 31
0.0
  0
LINE
  8
0
 62
     0
 10
7.625
 20
0.502155
 30
0.0
 11
7.711883
 21
0.589039
 31
0.0
  0
LINE
  8
0
 62
     0
 10
7.756078
 20
0.633233
 30
0.0
 11
7.756078
 21
0.633233
 31
0.0
  0
LINE
  8
0
 62
     0
 10
7.800272
 20
0.677427
 30
0.0
 11
8.021243
 21
0.898398
 31
0.0
  0
LINE
  8
0
 62
     0
 10
8.065437
 20
0.942592
 30
0.0
 11
8.065437
 21
0.942592
 31
0.0
  0
LINE
  8
0
 62
     0
 10
8.109631
 20
0.986786
 30
0.0
 11
8.125
 21
1.002155
 31
0.0
  0
LINE
  8
0
 62
     0
 10
8.497845
 20
1.375
 30
0.0
 11
8.639961
 21
1.517116
 31
0.0
  0
LINE
  8
0
 62
     0
 10
8.684155
 20
1.561311
 30
0.0
 11
8.684155
 21
1.561311
 31
0.0
  0
LINE
  8
0
 62
     0
 10
8.728349
 20
1.605505
 30
0.0
 11
8.94932
 21
1.826476
 31
0.0
  0
LINE
  8
0
 62
     0
 10
8.993514
 20
1.87067
 30
0.0
 11
8.993514
 21
1.87067
 31
0.0
  0
LINE
  8
0
 62
     0
 10
7.625
 20
0.678932
 30
0.0
 11
7.778175
 21
0.832107
 31
0.0
  0
LINE
  8
0
 62
     0
 10
7.822369
 20
0.876301
 30
0.0
 11
7.822369
 21
0.876301
 31
0.0
  0
LINE
  8
0
 62
     0
 10
7.866563
 20
0.920495
 30
0.0
 11
8.087534
 21
1.141466
 31
0.0
  0
LINE
  8
0
 62
     0
 10
8.321068
 20
1.375
 30
0.0
 11
8.396893
 21
1.450825
 31
0.0
  0
LINE
  8
0
 62
     0
 10
8.441087
 20
1.495019
 30
0.0
 11
8.441087
 21
1.495019
 31
0.0
  0
LINE
  8
0
 62
     0
 10
8.485281
 20
1.539214
 30
0.0
 11
8.706252
 21
1.760184
 31
0.0
  0
LINE
  8
0
 62
     0
 10
8.750446
 20
1.804379
 30
0.0
 11
8.750446
 21
1.804379
 31
0.0
  0
LINE
  8
0
 62
     0
 10
8.794641
 20
1.848573
 30
0.0
 11
8.821068
 21
1.875
 31
0.0
  0
LINE
  8
0
 62
     0
 10
7.625
 20
0.855709
 30
0.0
 11
7.844466
 21
1.075175
 31
0.0
  0
LINE
  8
0
 62
     0
 10
7.88866
 20
1.119369
 30
0.0
 11
7.88866
 21
1.119369
 31
0.0
  0
LINE
  8
0
 62
     0
 10
7.932854
 20
1.163563
 30
0.0
 11
8.125
 21
1.355709
 31
0.0
  0
LINE
  8
0
 62
     0
 10
8.144291
 20
1.375
 30
0.0
 11
8.153825
 21
1.384534
 31
0.0
  0
LINE
  8
0
 62
     0
 10
8.198019
 20
1.428728
 30
0.0
 11
8.198019
 21
1.428728
 31
0.0
  0
LINE
  8
0
 62
     0
 10
8.242213
 20
1.472922
 30
0.0
 11
8.463184
 21
1.693893
 31
0.0
  0
LINE
  8
0
 62
     0
 10
8.507378
 20
1.738087
 30
0.0
 11
8.507378
 21
1.738087
 31
0.0
  0
LINE
  8
0
 62
     0
 10
8.551573
 20
1.782282
 30
0.0
 11
8.644291
 21
1.875
 31
0.0
  0
LINE
  8
0
 62
     0
 10
7.645592
 20
1.053078
 30
0.0
 11
7.645592
 21
1.053078
 31
0.0
  0
LINE
  8
0
 62
     0
 10
7.689786
 20
1.097272
 30
0.0
 11
7.910757
 21
1.318243
 31
0.0
  0
LINE
  8
0
 62
     0
 10
7.954951
 20
1.362437
 30
0.0
 11
7.954951
 21
1.362437
 31
0.0
  0
LINE
  8
0
 62
     0
 10
7.999145
 20
1.406631
 30
0.0
 11
8.220116
 21
1.627602
 31
0.0
  0
LINE
  8
0
 62
     0
 10
8.264311
 20
1.671796
 30
0.0
 11
8.264311
 21
1.671796
 31
0.0
  0
LINE
  8
0
 62
     0
 10
8.308505
 20
1.71599
 30
0.0
 11
8.467514
 21
1.875
 31
0.0
  0
LINE
  8
0
 62
     0
 10
7.625
 20
1.209262
 30
0.0
 11
7.667689
 21
1.251951
 31
0.0
  0
LINE
  8
0
 62
     0
 10
7.711883
 20
1.296146
 30
0.0
 11
7.711883
 21
1.296146
 31
0.0
  0
LINE
  8
0
 62
     0
 10
7.756078
 20
1.34034
 30
0.0
 11
7.977048
 21
1.561311
 31
0.0
  0
LINE
  8
0
 62
     0
 10
8.021243
 20
1.605505
 30
0.0
 11
8.021243
 21
1.605505
 31
0.0
  0
LINE
  8
0
 62
     0
 10
8.065437
 20
1.649699
 30
0.0
 11
8.286408
 21
1.87067
 31
0.0
  0
LINE
  8
0
 62
     0
 10
7.625
 20
1.386039
 30
0.0
 11
7.73398
 21
1.495019
 31
0.0
  0
LINE
  8
0
 62
     0
 10
7.778175
 20
1.539214
 30
0.0
 11
7.778175
 21
1.539214
 31
0.0
  0
LINE
  8
0
 62
     0
 10
7.822369
 20
1.583408
 30
0.0
 11
8.04334
 21
1.804379
 31
0.0
  0
LINE
  8
0
 62
     0
 10
8.087534
 20
1.848573
 30
0.0
 11
8.087534
 21
1.848573
 31
0.0
  0
LINE
  8
0
 62
     0
 10
7.625
 20
1.562816
 30
0.0
 11
7.800272
 21
1.738087
 31
0.0
  0
LINE
  8
0
 62
     0
 10
7.844466
 20
1.782282
 30
0.0
 11
7.844466
 21
1.782282
 31
0.0
  0
LINE
  8
0
 62
     0
 10
7.88866
 20
1.826476
 30
0.0
 11
7.937184
 21
1.875
 31
0.0
  0
LINE
  8
0
 62
     0
 10
7.645592
 20
1.760184
 30
0.0
 11
7.760408
 21
1.875
 31
0.0
  0
LINE
  8
0
 62
     0
 10
8.204951
 20
0.375
 30
0.0
 11
8.374796
 21
0.544845
 31
0.0
  0
LINE
  8
0
 62
     0
 10
8.41899
 20
0.589039
 30
0.0
 11
8.41899
 21
0.589039
 31
0.0
  0
LINE
  8
0
 62
     0
 10
8.463184
 20
0.633233
 30
0.0
 11
8.684155
 21
0.854204
 31
0.0
  0
LINE
  8
0
 62
     0
 10
9.204951
 20
1.375
 30
0.0
 11
9.302874
 21
1.472922
 31
0.0
  0
LINE
  8
0
 62
     0
 10
9.347068
 20
1.517116
 30
0.0
 11
9.347068
 21
1.517116
 31
0.0
  0
LINE
  8
0
 62
     0
 10
9.391262
 20
1.561311
 30
0.0
 11
9.612233
 21
1.782282
 31
0.0
  0
LINE
  8
0
 62
     0
 10
9.656427
 20
1.826476
 30
0.0
 11
9.656427
 21
1.826476
 31
0.0
  0
LINE
  8
0
 62
     0
 10
9.700621
 20
1.87067
 30
0.0
 11
9.704951
 21
1.875
 31
0.0
  0
LINE
  8
0
 62
     0
 10
8.396893
 20
0.390165
 30
0.0
 11
8.617864
 21
0.611136
 31
0.0
  0
LINE
  8
0
 62
     0
 10
8.662058
 20
0.65533
 30
0.0
 11
8.662058
 21
0.65533
 31
0.0
  0
LINE
  8
0
 62
     0
 10
8.706252
 20
0.699524
 30
0.0
 11
8.881728
 21
0.875
 31
0.0
  0
LINE
  8
0
 62
     0
 10
9.381728
 20
1.375
 30
0.0
 11
9.545942
 21
1.539214
 31
0.0
  0
LINE
  8
0
 62
     0
 10
9.590136
 20
1.583408
 30
0.0
 11
9.590136
 21
1.583408
 31
0.0
  0
LINE
  8
0
 62
     0
 10
9.63433
 20
1.627602
 30
0.0
 11
9.855301
 21
1.848573
 31
0.0
  0
LINE
  8
0
 62
     0
 10
8.595767
 20
0.412262
 30
0.0
 11
8.595767
 21
0.412262
 31
0.0
  0
LINE
  8
0
 62
     0
 10
8.639961
 20
0.456456
 30
0.0
 11
8.860932
 21
0.677427
 31
0.0
  0
LINE
  8
0
 62
     0
 10
8.905126
 20
0.721621
 30
0.0
 11
8.905126
 21
0.721621
 31
0.0
  0
LINE
  8
0
 62
     0
 10
8.94932
 20
0.765816
 30
0.0
 11
9.058505
 21
0.875
 31
0.0
  0
LINE
  8
0
 62
     0
 10
9.568039
 20
1.384534
 30
0.0
 11
9.78901
 21
1.605505
 31
0.0
  0
LINE
  8
0
 62
     0
 10
9.833204
 20
1.649699
 30
0.0
 11
9.833204
 21
1.649699
 31
0.0
  0
LINE
  8
0
 62
     0
 10
9.877398
 20
1.693893
 30
0.0
 11
10.058505
 21
1.875
 31
0.0
  0
LINE
  8
0
 62
     0
 10
8.735281
 20
0.375
 30
0.0
 11
8.794641
 21
0.434359
 31
0.0
  0
LINE
  8
0
 62
     0
 10
8.838835
 20
0.478553
 30
0.0
 11
8.838835
 21
0.478553
 31
0.0
  0
LINE
  8
0
 62
     0
 10
8.883029
 20
0.522748
 30
0.0
 11
9.104
 21
0.743718
 31
0.0
  0
LINE
  8
0
 62
     0
 10
9.148194
 20
0.787913
 30
0.0
 11
9.148194
 21
0.787913
 31
0.0
  0
LINE
  8
0
 62
     0
 10
9.192388
 20
0.832107
 30
0.0
 11
9.235281
 21
0.875
 31
0.0
  0
LINE
  8
0
 62
     0
 10
9.766912
 20
1.406631
 30
0.0
 11
9.766912
 21
1.406631
 31
0.0
  0
LINE
  8
0
 62
     0
 10
9.811107
 20
1.450825
 30
0.0
 11
10.032077
 21
1.671796
 31
0.0
  0
LINE
  8
0
 62
     0
 10
10.076272
 20
1.71599
 30
0.0
 11
10.076272
 21
1.71599
 31
0.0
  0
LINE
  8
0
 62
     0
 10
10.120466
 20
1.760184
 30
0.0
 11
10.235281
 21
1.875
 31
0.0
  0
LINE
  8
0
 62
     0
 10
8.912058
 20
0.375
 30
0.0
 11
9.037709
 21
0.50065
 31
0.0
  0
LINE
  8
0
 62
     0
 10
9.081903
 20
0.544845
 30
0.0
 11
9.081903
 21
0.544845
 31
0.0
  0
LINE
  8
0
 62
     0
 10
9.126097
 20
0.589039
 30
0.0
 11
9.347068
 21
0.81001
 31
0.0
  0
LINE
  8
0
 62
     0
 10
9.391262
 20
0.854204
 30
0.0
 11
9.391262
 21
0.854204
 31
0.0
  0
LINE
  8
0
 62
     0
 10
9.75
 20
1.212942
 30
0.0
 11
9.965786
 21
1.428728
 31
0.0
  0
LINE
  8
0
 62
     0
 10
10.00998
 20
1.472922
 30
0.0
 11
10.00998
 21
1.472922
 31
0.0
  0
LINE
  8
0
 62
     0
 10
10.054175
 20
1.517116
 30
0.0
 11
10.25
 21
1.712942
 31
0.0
  0
LINE
  8
0
 62
     0
 10
9.088835
 20
0.375
 30
0.0
 11
9.280777
 21
0.566942
 31
0.0
  0
LINE
  8
0
 62
     0
 10
9.324971
 20
0.611136
 30
0.0
 11
9.324971
 21
0.611136
 31
0.0
  0
LINE
  8
0
 62
     0
 10
9.369165
 20
0.65533
 30
0.0
 11
9.588835
 21
0.875
 31
0.0
  0
LINE
  8
0
 62
     0
 10
9.75
 20
1.036165
 30
0.0
 11
9.899495
 21
1.18566
 31
0.0
  0
LINE
  8
0
 62
     0
 10
9.943689
 20
1.229854
 30
0.0
 11
9.943689
 21
1.229854
 31
0.0
  0
LINE
  8
0
 62
     0
 10
9.987883
 20
1.274049
 30
0.0
 11
10.208854
 21
1.495019
 31
0.0
  0
LINE
  8
0
 62
     0
 10
9.302874
 20
0.412262
 30
0.0
 11
9.523844
 21
0.633233
 31
0.0
  0
LINE
  8
0
 62
     0
 10
9.568039
 20
0.677427
 30
0.0
 11
9.568039
 21
0.677427
 31
0.0
  0
LINE
  8
0
 62
     0
 10
9.612233
 20
0.721621
 30
0.0
 11
9.833204
 21
0.942592
 31
0.0
  0
LINE
  8
0
 62
     0
 10
9.877398
 20
0.986786
 30
0.0
 11
9.877398
 21
0.986786
 31
0.0
  0
LINE
  8
0
 62
     0
 10
9.921592
 20
1.030981
 30
0.0
 11
10.142563
 21
1.251951
 31
0.0
  0
LINE
  8
0
 62
     0
 10
10.186757
 20
1.296146
 30
0.0
 11
10.186757
 21
1.296146
 31
0.0
  0
LINE
  8
0
 62
     0
 10
10.230951
 20
1.34034
 30
0.0
 11
10.25
 21
1.359389
 31
0.0
  0
LINE
  8
0
 62
     0
 10
9.442388
 20
0.375
 30
0.0
 11
9.457553
 21
0.390165
 31
0.0
  0
LINE
  8
0
 62
     0
 10
9.501747
 20
0.434359
 30
0.0
 11
9.501747
 21
0.434359
 31
0.0
  0
LINE
  8
0
 62
     0
 10
9.545942
 20
0.478553
 30
0.0
 11
9.766912
 21
0.699524
 31
0.0
  0
LINE
  8
0
 62
     0
 10
9.811107
 20
0.743718
 30
0.0
 11
9.811107
 21
0.743718
 31
0.0
  0
LINE
  8
0
 62
     0
 10
9.855301
 20
0.787913
 30
0.0
 11
10.076272
 21
1.008883
 31
0.0
  0
LINE
  8
0
 62
     0
 10
10.120466
 20
1.053078
 30
0.0
 11
10.120466
 21
1.053078
 31
0.0
  0
LINE
  8
0
 62
     0
 10
10.16466
 20
1.097272
 30
0.0
 11
10.25
 21
1.182612
 31
0.0
  0
LINE
  8
0
 62
     0
 10
9.619165
 20
0.375
 30
0.0
 11
9.700621
 21
0.456456
 31
0.0
  0
LINE
  8
0
 62
     0
 10
9.744815
 20
0.50065
 30
0.0
 11
9.744815
 21
0.50065
 31
0.0
  0
LINE
  8
0
 62
     0
 10
9.78901
 20
0.544845
 30
0.0
 11
10.00998
 21
0.765816
 31
0.0
  0
LINE
  8
0
 62
     0
 10
10.054175
 20
0.81001
 30
0.0
 11
10.054175
 21
0.81001
 31
0.0
  0
LINE
  8
0
 62
     0
 10
10.098369
 20
0.854204
 30
0.0
 11
10.25
 21
1.005835
 31
0.0
  0
LINE
  8
0
 62
     0
 10
9.795942
 20
0.375
 30
0.0
 11
9.943689
 21
0.522748
 31
0.0
  0
LINE
  8
0
 62
     0
 10
9.987883
 20
0.566942
 30
0.0
 11
9.987883
 21
0.566942
 31
0.0
  0
LINE
  8
0
 62
     0
 10
10.032077
 20
0.611136
 30
0.0
 11
10.25
 21
0.829058
 31
0.0
  0
LINE
  8
0
 62
     0
 10
9.972718
 20
0.375
 30
0.0
 11
10.186757
 21
0.589039
 31
0.0
  0
LINE
  8
0
 62
     0
 10
10.230951
 20
0.633233
 30
0.0
 11
10.230951
 21
0.633233
 31
0.0
  0
LINE
  8
0
 62
     0
 10
10.16466
 20
0.390165
 30
0.0
 11
10.16466
 21
0.390165
 31
0.0
  0
LINE
  8
0
 62
     0
 10
10.208854
 20
0.434359
 30
0.0
 11
10.25
 21
0.475505
 31
0.0
  0
POLYLINE
  8
GREEN
 66
     1
 10
0.0
 20
0.0
 30
0.0
 70
     1
  0
VERTEX
  8
GREEN
 10
10.125
 20
3.125
 30
0.0
  0
VERTEX
  8
GREEN
 10
9.691987
 20
2.875
 30
0.0
  0
VERTEX
  8
GREEN
 10
9.691987
 20
2.375
 30
0.0
  0
VERTEX
  8
GREEN
 10
10.125
 20
2.125
 30
0.0
  0
VERTEX
  8
GREEN
 10
10.558013
 20
2.375
 30
0.0
  0
VERTEX
  8
GREEN
 10
10.558013
 20
2.875
 30
0.0
  0
SEQEND
  8
GREEN
  0
TEXT
  8
GREEN
 10
9.791667
 20
2.625
 30
0.0
 40
0.1
  1
POLYGON
 72
     1
 11
10.125
 21
2.625
 31
0.0
  0
TEXT
  8
YELLOW
 10
7.125
 20
0.75
 30
0.0
 40
0.1
  1
TEXT! abcABC123
 50
90.0
  0
TEXT
  8
YELLOW
 10
0.5
 20
8.125
 30
0.0
 40
0.125
  1
CDXF v1.2 Copyright (c) 1993,1994 Joseph V. Gagliano
  0
TEXT
  8
CYAN
 10
0.5
 20
7.5
 30
0.0
 40
0.1
  1
Navigate around the display with the mouse pointer.  Notice
  0
TEXT
  8
CYAN
 10
0.5
 20
7.291667
 30
0.0
 40
0.1
  1
the current position indicator at the bottom of the screen is
  0
TEXT
  8
CYAN
 10
0.5
 20
7.083333
 30
0.0
 40
0.1
  1
constantly updated.
  0
TEXT
  8
CYAN
 10
0.5
 20
6.666667
 30
0.0
 40
0.1
  1
Try the tool buttons at the right.  Move the pointer to a
  0
TEXT
  8
CYAN
 10
0.5
 20
6.458333
 30
0.0
 40
0.1
  1
button.  When you're on a button, the pointer will change to
  0
TEXT
  8
CYAN
 10
0.5
 20
6.25
 30
0.0
 40
0.1
  1
a hand.
  0
TEXT
  8
CYAN
 10
0.5
 20
5.833333
 30
0.0
 40
0.1
  1
Zoom in on the drawing below by pressing W or moving the
  0
TEXT
  8
CYAN
 10
0.5
 20
5.625
 30
0.0
 40
0.1
  1
mouse to the ZOOM WINDOW button.  Then click and drag a
  0
TEXT
  8
CYAN
 10
0.5
 20
5.416667
 30
0.0
 40
0.1
  1
window around it.  When you're done viewing it, press O or
  0
TEXT
  8
CYAN
 10
0.5
 20
5.208333
 30
0.0
 40
0.1
  1
select ZOOM OUT to redisplay the entire drawing.
  0
LINE
  8
DIM
  6
BYBLOCK
 10
0.9375
 20
0.75
 30
0.0
 11
0.57
 21
0.75
 31
0.0
  0
LINE
  8
DIM
  6
BYBLOCK
 10
0.9375
 20
3.25
 30
0.0
 11
0.57
 21
3.25
 31
0.0
  0
LINE
  8
DIM
  6
BYBLOCK
 10
0.75
 20
0.93
 30
0.0
 11
0.75
 21
1.49
 31
0.0
  0
LINE
  8
DIM
  6
BYBLOCK
 10
0.75
 20
3.07
 30
0.0
 11
0.75
 21
2.51
 31
0.0
  0
SOLID
  8
DIM
  6
BYBLOCK
 10
0.78
 20
0.93
 30
0.0
 11
0.72
 21
0.93
 31
0.0
 12
0.75
 22
0.75
 32
0.0
 13
0.75
 23
0.75
 33
0.0
  0
SOLID
  8
DIM
  6
BYBLOCK
 10
0.78
 20
3.07
 30
0.0
 11
0.72
 21
3.07
 31
0.0
 12
0.75
 22
3.25
 32
0.0
 13
0.75
 23
3.25
 33
0.0
  0
TEXT
  8
DIM
  6
BYBLOCK
 10
0.84
 20
1.67
 30
0.0
 40
0.18
  1
2.500
 50
90.0
  0
POINT
  8
DIM
  6
BYBLOCK
 10
1.0
 20
0.75
 30
0.0
  0
POINT
  8
DIM
  6
BYBLOCK
 10
1.0
 20
3.25
 30
0.0
  0
POINT
  8
DIM
  6
BYBLOCK
 10
0.75
 20
3.25
 30
0.0
  0
INSERT
  8
BLUE
  2
LOGO
 10
1.5
 20
4.125
 30
0.0
  0
INSERT
  8
BLUE
  2
LOGO
 10
3.125
 20
4.125
 30
0.0
 41
0.5
 42
0.5
 50
180.0
 43
0.5
  0
INSERT
  8
BLUE
  2
LOGO
 10
4.625
 20
4.125
 30
0.0
 41
1.25
 42
1.25
 50
270.0
 43
1.25
  0
TEXT
  8
GREEN
 10
2.770833
 20
4.5
 30
0.0
 40
0.125
  1
BLOCKS
 72
     1
 11
3.125
 21
4.5
 31
0.0
  0
ENDSEC
  0
EOF
