0
SECTION
2
HEADER
0
ENDSEC
0
SECTION
2
TABLES
0
TABLE
2
LTYPE
70
2
0
LTYPE
2
CONTINUOUS
70
64
3
Solid line
72
65
73
0
40
0.0
0
LTYPE
2
CENTER
70
64
3
____ _ ____ _ ____
72
65
73
4
40
2.0
49
1.25
49
-0.25
49
0.25
49
-0.25
0
ENDTAB
0
TABLE
2
LAYER
70
6
0
LAYER
  2
0
 70
     0
62
7
6
CONTINUOUS
  0
LAYER
  2
MAIN
 70
     0
 62
     7
  6
CONTINUOUS
  0
LAYER
  2
TIE_RODS
70
     0
 62
1
  6
CONTINUOUS
  0
LAYER
  2
BOLT_HOLES
70
     0
 62
1
  6
CONTINUOUS
  0
LAYER
  2
TUBE_HOLES
70
     0
 62
5
  6
CONTINUOUS
0
LAYER
  2
CENTER
 70
     0
 62
     2
  6
CENTER
  0
ENDTAB
0
ENDSEC
0
SECTION
2
BLOCKS
0
ENDSEC
0
SECTION
2
ENTITIES
0
CIRCLE
8
MAIN
10
0.0
20
0.0
30
0.0
40
 9.84375 
0
CIRCLE
8
MAIN
10
0.0
20
0.0
30
0.0
40
 10 
0
CIRCLE
8
MAIN
10
0.0
20
0.0
30
0.0
40
 12.875 
0
CIRCLE
8
BOLT_HOLES
10
 1.501051 
20
 11.40162 
30
0.0
40
 .5 
0
CIRCLE
8
BOLT_HOLES
10
 4.400859 
20
 10.62461 
30
0.0
40
 .5 
0
CIRCLE
8
BOLT_HOLES
10
 7.000756 
20
 9.123563 
30
0.0
40
 .5 
0
CIRCLE
8
BOLT_HOLES
10
 9.123563 
20
 7.000756 
30
0.0
40
 .5 
0
CIRCLE
8
BOLT_HOLES
10
 10.62461 
20
 4.400859 
30
0.0
40
 .5 
0
CIRCLE
8
BOLT_HOLES
10
 11.40162 
20
 1.501051 
30
0.0
40
 .5 
0
CIRCLE
8
BOLT_HOLES
10
 11.40162 
20
-1.501051 
30
0.0
40
 .5 
0
CIRCLE
8
BOLT_HOLES
10
 10.62461 
20
-4.400859 
30
0.0
40
 .5 
0
CIRCLE
8
BOLT_HOLES
10
 9.123563 
20
-7.000756 
30
0.0
40
 .5 
0
CIRCLE
8
BOLT_HOLES
10
 7.000756 
20
-9.123563 
30
0.0
40
 .5 
0
CIRCLE
8
BOLT_HOLES
10
 4.400859 
20
-10.62461 
30
0.0
40
 .5 
0
CIRCLE
8
BOLT_HOLES
10
 1.501051 
20
-11.40162 
30
0.0
40
 .5 
0
CIRCLE
8
BOLT_HOLES
10
-1.501051 
20
-11.40162 
30
0.0
40
 .5 
0
CIRCLE
8
BOLT_HOLES
10
-4.400859 
20
-10.62461 
30
0.0
40
 .5 
0
CIRCLE
8
BOLT_HOLES
10
-7.000756 
20
-9.123563 
30
0.0
40
 .5 
0
CIRCLE
8
BOLT_HOLES
10
-9.123563 
20
-7.000756 
30
0.0
40
 .5 
0
CIRCLE
8
BOLT_HOLES
10
-10.62461 
20
-4.400859 
30
0.0
40
 .5 
0
CIRCLE
8
BOLT_HOLES
10
-11.40162 
20
-1.501051 
30
0.0
40
 .5 
0
CIRCLE
8
BOLT_HOLES
10
-11.40162 
20
 1.501051 
30
0.0
40
 .5 
0
CIRCLE
8
BOLT_HOLES
10
-10.62461 
20
 4.400859 
30
0.0
40
 .5 
0
CIRCLE
8
BOLT_HOLES
10
-9.123563 
20
 7.000756 
30
0.0
40
 .5 
0
CIRCLE
8
BOLT_HOLES
10
-7.000756 
20
 9.123563 
30
0.0
40
 .5 
0
CIRCLE
8
BOLT_HOLES
10
-4.400859 
20
 10.62461 
30
0.0
40
 .5 
0
CIRCLE
8
BOLT_HOLES
10
-1.501051 
20
 11.40162 
30
0.0
40
 .5 
0
LINE
8
CENTER
10
0.0
20
0.0
30
0.0
11
0.0
21
 13.00375 
31
0.0
0
LINE
8
CENTER
10
0.0
20
0.0
30
0.0
11
-13.00375 
21
0.0
31
0.0
0
LINE
8
CENTER
10
0.0
20
0.0
30
0.0
11
0.0
21
-13.00375 
31
0.0
0
LINE
8
CENTER
10
0.0
20
0.0
30
0.0
11
 13.00375 
21
0.0
31
0.0
0
CIRCLE
8
TIE_RODS
10
 9.59375 
20
 0 
30
0.0
40
 .125 
0
CIRCLE
8
TIE_RODS
10
 9.59375 
20
 0 
30
0.0
40
 .1666667 
0
CIRCLE
8
TIE_RODS
10
-9.59375 
20
 0 
30
0.0
40
 .125 
0
CIRCLE
8
TIE_RODS
10
-9.59375 
20
 0 
30
0.0
40
 .1666667 
999
TUBEHOLES
0
CIRCLE
8
TUBE_HOLES
10
 0 
20
-.5 
30
0.0
40
 .25 
999
TUBEHOLES
0
CIRCLE
8
TUBE_HOLES
10
 0 
20
-1.582532 
30
0.0
40
 .25 
999
TUBEHOLES
0
CIRCLE
8
TUBE_HOLES
10
 0 
20
-2.665064 
30
0.0
40
 .25 
999
TUBEHOLES
0
CIRCLE
8
TUBE_HOLES
10
 0 
20
-3.747597 
30
0.0
40
 .25 
999
TUBEHOLES
0
CIRCLE
8
TUBE_HOLES
10
 0 
20
-4.830129 
30
0.0
40
 .25 
999
TUBEHOLES
0
CIRCLE
8
TUBE_HOLES
10
 0 
20
-5.912661 
30
0.0
40
 .25 
999
TUBEHOLES
0
CIRCLE
8
TUBE_HOLES
10
 0 
20
-6.995193 
30
0.0
40
 .25 
999
TUBEHOLES
0
CIRCLE
8
TUBE_HOLES
10
 0 
20
-8.077724 
30
0.0
40
 .25 
999
TUBEHOLES
0
CIRCLE
8
TUBE_HOLES
10
 0 
20
-9.160256 
30
0.0
40
 .25 
999
TUBEHOLES
0
CIRCLE
8
TUBE_HOLES
10
 0 
20
 .5 
30
0.0
40
 .25 
999
TUBEHOLES
0
CIRCLE
8
TUBE_HOLES
10
 0 
20
 1.582532 
30
0.0
40
 .25 
999
TUBEHOLES
0
CIRCLE
8
TUBE_HOLES
10
 0 
20
 2.665064 
30
0.0
40
 .25 
999
TUBEHOLES
0
CIRCLE
8
TUBE_HOLES
10
 0 
20
 3.747597 
30
0.0
40
 .25 
999
TUBEHOLES
0
CIRCLE
8
TUBE_HOLES
10
 0 
20
 4.830129 
30
0.0
40
 .25 
999
TUBEHOLES
0
CIRCLE
8
TUBE_HOLES
10
 0 
20
 5.912661 
30
0.0
40
 .25 
999
TUBEHOLES
0
CIRCLE
8
TUBE_HOLES
10
 0 
20
 6.995193 
30
0.0
40
 .25 
999
TUBEHOLES
0
CIRCLE
8
TUBE_HOLES
10
 0 
20
 8.077724 
30
0.0
40
 .25 
999
TUBEHOLES
0
CIRCLE
8
TUBE_HOLES
10
 0 
20
 9.160256 
30
0.0
40
 .25 
999
TUBEHOLES
0
CIRCLE
8
TUBE_HOLES
10
 .625 
20
 .5 
30
0.0
40
 .25 
999
TUBEHOLES
0
CIRCLE
8
TUBE_HOLES
10
 1.25 
20
 .5 
30
0.0
40
 .25 
999
TUBEHOLES
0
CIRCLE
8
TUBE_HOLES
10
 1.875 
20
 .5 
30
0.0
40
 .25 
999
TUBEHOLES
0
CIRCLE
8
TUBE_HOLES
10
 2.5 
20
 .5 
30
0.0
40
 .25 
999
TUBEHOLES
0
CIRCLE
8
TUBE_HOLES
10
 3.125 
20
 .5 
30
0.0
40
 .25 
999
TUBEHOLES
0
CIRCLE
8
TUBE_HOLES
10
 3.75 
20
 .5 
30
0.0
40
 .25 
999
TUBEHOLES
0
CIRCLE
8
TUBE_HOLES
10
 4.375 
20
 .5 
30
0.0
40
 .25 
999
TUBEHOLES
0
CIRCLE
8
TUBE_HOLES
10
 5 
20
 .5 
30
0.0
40
 .25 
999
TUBEHOLES
0
CIRCLE
8
TUBE_HOLES
10
 5.625 
20
 .5 
30
0.0
40
 .25 
999
TUBEHOLES
0
CIRCLE
8
TUBE_HOLES
10
 6.25 
20
 .5 
30
0.0
40
 .25 
999
TUBEHOLES
0
CIRCLE
8
TUBE_HOLES
10
 6.875 
20
 .5 
30
0.0
40
 .25 
999
TUBEHOLES
0
CIRCLE
8
TUBE_HOLES
10
 7.5 
20
 .5 
30
0.0
40
 .25 
999
TUBEHOLES
0
CIRCLE
8
TUBE_HOLES
10
 8.125 
20
 .5 
30
0.0
40
 .25 
999
TUBEHOLES
0
CIRCLE
8
TUBE_HOLES
10
 8.75 
20
 .5 
30
0.0
40
 .25 
999
TUBEHOLES
0
CIRCLE
8
TUBE_HOLES
10
 9.375 
20
 .5 
30
0.0
40
 .25 
999
TUBEHOLES
0
CIRCLE
8
TUBE_HOLES
10
 .625 
20
 1.582532 
30
0.0
40
 .25 
999
TUBEHOLES
0
CIRCLE
8
TUBE_HOLES
10
 1.25 
20
 1.582532 
30
0.0
40
 .25 
999
TUBEHOLES
0
CIRCLE
8
TUBE_HOLES
10
 1.875 
20
 1.582532 
30
0.0
40
 .25 
999
TUBEHOLES
0
CIRCLE
8
TUBE_HOLES
10
 2.5 
20
 1.582532 
30
0.0
40
 .25 
999
TUBEHOLES
0
CIRCLE
8
TUBE_HOLES
10
 3.125 
20
 1.582532 
30
0.0
40
 .25 
999
TUBEHOLES
0
CIRCLE
8
TUBE_HOLES
10
 3.75 
20
 1.582532 
30
0.0
40
 .25 
999
TUBEHOLES
0
CIRCLE
8
TUBE_HOLES
10
 4.375 
20
 1.582532 
30
0.0
40
 .25 
999
TUBEHOLES
0
CIRCLE
8
TUBE_HOLES
10
 5 
20
 1.582532 
30
0.0
40
 .25 
999
TUBEHOLES
0
CIRCLE
8
TUBE_HOLES
10
 5.625 
20
 1.582532 
30
0.0
40
 .25 
999
TUBEHOLES
0
CIRCLE
8
TUBE_HOLES
10
 6.25 
20
 1.582532 
30
0.0
40
 .25 
999
TUBEHOLES
0
CIRCLE
8
TUBE_HOLES
10
 6.875 
20
 1.582532 
30
0.0
40
 .25 
999
TUBEHOLES
0
CIRCLE
8
TUBE_HOLES
10
 7.5 
20
 1.582532 
30
0.0
40
 .25 
999
TUBEHOLES
0
CIRCLE
8
TUBE_HOLES
10
 8.125 
20
 1.582532 
30
0.0
40
 .25 
999
TUBEHOLES
0
CIRCLE
8
TUBE_HOLES
10
 8.75 
20
 1.582532 
30
0.0
40
 .25 
999
TUBEHOLES
0
CIRCLE
8
TUBE_HOLES
10
 9.375 
20
 1.582532 
30
0.0
40
 .25 
999
TUBEHOLES
0
CIRCLE
8
TUBE_HOLES
10
 .625 
20
 2.665064 
30
0.0
40
 .25 
999
TUBEHOLES
0
CIRCLE
8
TUBE_HOLES
10
 1.25 
20
 2.665064 
30
0.0
40
 .25 
999
TUBEHOLES
0
CIRCLE
8
TUBE_HOLES
10
 1.875 
20
 2.665064 
30
0.0
40
 .25 
999
TUBEHOLES
0
CIRCLE
8
TUBE_HOLES
10
 2.5 
20
 2.665064 
30
0.0
40
 .25 
999
TUBEHOLES
0
CIRCLE
8
TUBE_HOLES
10
 3.125 
20
 2.665064 
30
0.0
40
 .25 
999
TUBEHOLES
0
CIRCLE
8
TUBE_HOLES
10
 3.75 
20
 2.665064 
30
0.0
40
 .25 
999
TUBEHOLES
0
CIRCLE
8
TUBE_HOLES
10
 4.375 
20
 2.665064 
30
0.0
40
 .25 
999
TUBEHOLES
0
CIRCLE
8
TUBE_HOLES
10
 5 
20
 2.665064 
30
0.0
40
 .25 
999
TUBEHOLES
0
CIRCLE
8
TUBE_HOLES
10
 5.625 
20
 2.665064 
30
0.0
40
 .25 
999
TUBEHOLES
0
CIRCLE
8
TUBE_HOLES
10
 6.25 
20
 2.665064 
30
0.0
40
 .25 
999
TUBEHOLES
0
CIRCLE
8
TUBE_HOLES
10
 6.875 
20
 2.665064 
30
0.0
40
 .25 
999
TUBEHOLES
0
CIRCLE
8
TUBE_HOLES
10
 7.5 
20
 2.665064 
30
0.0
40
 .25 
999
TUBEHOLES
0
CIRCLE
8
TUBE_HOLES
10
 8.125 
20
 2.665064 
30
0.0
40
 .25 
999
TUBEHOLES
0
CIRCLE
8
TUBE_HOLES
10
 8.75 
20
 2.665064 
30
0.0
40
 .25 
999
TUBEHOLES
0
CIRCLE
8
TUBE_HOLES
10
 .625 
20
 3.747597 
30
0.0
40
 .25 
999
TUBEHOLES
0
CIRCLE
8
TUBE_HOLES
10
 1.25 
20
 3.747597 
30
0.0
40
 .25 
999
TUBEHOLES
0
CIRCLE
8
TUBE_HOLES
10
 1.875 
20
 3.747597 
30
0.0
40
 .25 
999
TUBEHOLES
0
CIRCLE
8
TUBE_HOLES
10
 2.5 
20
 3.747597 
30
0.0
40
 .25 
999
TUBEHOLES
0
CIRCLE
8
TUBE_HOLES
10
 3.125 
20
 3.747597 
30
0.0
40
 .25 
999
TUBEHOLES
0
CIRCLE
8
TUBE_HOLES
10
 3.75 
20
 3.747597 
30
0.0
40
 .25 
999
TUBEHOLES
0
CIRCLE
8
TUBE_HOLES
10
 4.375 
20
 3.747597 
30
0.0
40
 .25 
999
TUBEHOLES
0
CIRCLE
8
TUBE_HOLES
10
 5 
20
 3.747597 
30
0.0
40
 .25 
999
TUBEHOLES
0
CIRCLE
8
TUBE_HOLES
10
 5.625 
20
 3.747597 
30
0.0
40
 .25 
999
TUBEHOLES
0
CIRCLE
8
TUBE_HOLES
10
 6.25 
20
 3.747597 
30
0.0
40
 .25 
999
TUBEHOLES
0
CIRCLE
8
TUBE_HOLES
10
 6.875 
20
 3.747597 
30
0.0
40
 .25 
999
TUBEHOLES
0
CIRCLE
8
TUBE_HOLES
10
 7.5 
20
 3.747597 
30
0.0
40
 .25 
999
TUBEHOLES
0
CIRCLE
8
TUBE_HOLES
10
 8.125 
20
 3.747597 
30
0.0
40
 .25 
999
TUBEHOLES
0
CIRCLE
8
TUBE_HOLES
10
 8.75 
20
 3.747597 
30
0.0
40
 .25 
999
TUBEHOLES
0
CIRCLE
8
TUBE_HOLES
10
 .625 
20
 4.830129 
30
0.0
40
 .25 
999
TUBEHOLES
0
CIRCLE
8
TUBE_HOLES
10
 1.25 
20
 4.830129 
30
0.0
40
 .25 
999
TUBEHOLES
0
CIRCLE
8
TUBE_HOLES
10
 1.875 
20
 4.830129 
30
0.0
40
 .25 
999
TUBEHOLES
0
CIRCLE
8
TUBE_HOLES
10
 2.5 
20
 4.830129 
30
0.0
40
 .25 
999
TUBEHOLES
0
CIRCLE
8
TUBE_HOLES
10
 3.125 
20
 4.830129 
30
0.0
40
 .25 
999
TUBEHOLES
0
CIRCLE
8
TUBE_HOLES
10
 3.75 
20
 4.830129 
30
0.0
40
 .25 
999
TUBEHOLES
0
CIRCLE
8
TUBE_HOLES
10
 4.375 
20
 4.830129 
30
0.0
40
 .25 
999
TUBEHOLES
0
CIRCLE
8
TUBE_HOLES
10
 5 
20
 4.830129 
30
0.0
40
 .25 
999
TUBEHOLES
0
CIRCLE
8
TUBE_HOLES
10
 5.625 
20
 4.830129 
30
0.0
40
 .25 
999
TUBEHOLES
0
CIRCLE
8
TUBE_HOLES
10
 6.25 
20
 4.830129 
30
0.0
40
 .25 
999
TUBEHOLES
0
CIRCLE
8
TUBE_HOLES
10
 6.875 
20
 4.830129 
30
0.0
40
 .25 
999
TUBEHOLES
0
CIRCLE
8
TUBE_HOLES
10
 7.5 
20
 4.830129 
30
0.0
40
 .25 
999
TUBEHOLES
0
CIRCLE
8
TUBE_HOLES
10
 8.125 
20
 4.830129 
30
0.0
40
 .25 
999
TUBEHOLES
0
CIRCLE
8
TUBE_HOLES
10
 .625 
20
 5.912661 
30
0.0
40
 .25 
999
TUBEHOLES
0
CIRCLE
8
TUBE_HOLES
10
 1.25 
20
 5.912661 
30
0.0
40
 .25 
999
TUBEHOLES
0
CIRCLE
8
TUBE_HOLES
10
 1.875 
20
 5.912661 
30
0.0
40
 .25 
999
TUBEHOLES
0
CIRCLE
8
TUBE_HOLES
10
 2.5 
20
 5.912661 
30
0.0
40
 .25 
999
TUBEHOLES
0
CIRCLE
8
TUBE_HOLES
10
 3.125 
20
 5.912661 
30
0.0
40
 .25 
999
TUBEHOLES
0
CIRCLE
8
TUBE_HOLES
10
 3.75 
20
 5.912661 
30
0.0
40
 .25 
999
TUBEHOLES
0
CIRCLE
8
TUBE_HOLES
10
 4.375 
20
 5.912661 
30
0.0
40
 .25 
999
TUBEHOLES
0
CIRCLE
8
TUBE_HOLES
10
 5 
20
 5.912661 
30
0.0
40
 .25 
999
TUBEHOLES
0
CIRCLE
8
TUBE_HOLES
10
 5.625 
20
 5.912661 
30
0.0
40
 .25 
999
TUBEHOLES
0
CIRCLE
8
TUBE_HOLES
10
 6.25 
20
 5.912661 
30
0.0
40
 .25 
999
TUBEHOLES
0
CIRCLE
8
TUBE_HOLES
10
 6.875 
20
 5.912661 
30
0.0
40
 .25 
999
TUBEHOLES
0
CIRCLE
8
TUBE_HOLES
10
 7.5 
20
 5.912661 
30
0.0
40
 .25 
999
TUBEHOLES
0
CIRCLE
8
TUBE_HOLES
10
 .625 
20
 6.995193 
30
0.0
40
 .25 
999
TUBEHOLES
0
CIRCLE
8
TUBE_HOLES
10
 1.25 
20
 6.995193 
30
0.0
40
 .25 
999
TUBEHOLES
0
CIRCLE
8
TUBE_HOLES
10
 1.875 
20
 6.995193 
30
0.0
40
 .25 
999
TUBEHOLES
0
CIRCLE
8
TUBE_HOLES
10
 2.5 
20
 6.995193 
30
0.0
40
 .25 
999
TUBEHOLES
0
CIRCLE
8
TUBE_HOLES
10
 3.125 
20
 6.995193 
30
0.0
40
 .25 
999
TUBEHOLES
0
CIRCLE
8
TUBE_HOLES
10
 3.75 
20
 6.995193 
30
0.0
40
 .25 
999
TUBEHOLES
0
CIRCLE
8
TUBE_HOLES
10
 4.375 
20
 6.995193 
30
0.0
40
 .25 
999
TUBEHOLES
0
CIRCLE
8
TUBE_HOLES
10
 5 
20
 6.995193 
30
0.0
40
 .25 
999
TUBEHOLES
0
CIRCLE
8
TUBE_HOLES
10
 5.625 
20
 6.995193 
30
0.0
40
 .25 
999
TUBEHOLES
0
CIRCLE
8
TUBE_HOLES
10
 6.25 
20
 6.995193 
30
0.0
40
 .25 
999
TUBEHOLES
0
CIRCLE
8
TUBE_HOLES
10
 .625 
20
 8.077724 
30
0.0
40
 .25 
999
TUBEHOLES
0
CIRCLE
8
TUBE_HOLES
10
 1.25 
20
 8.077724 
30
0.0
40
 .25 
999
TUBEHOLES
0
CIRCLE
8
TUBE_HOLES
10
 1.875 
20
 8.077724 
30
0.0
40
 .25 
999
TUBEHOLES
0
CIRCLE
8
TUBE_HOLES
10
 2.5 
20
 8.077724 
30
0.0
40
 .25 
999
TUBEHOLES
0
CIRCLE
8
TUBE_HOLES
10
 3.125 
20
 8.077724 
30
0.0
40
 .25 
999
TUBEHOLES
0
CIRCLE
8
TUBE_HOLES
10
 3.75 
20
 8.077724 
30
0.0
40
 .25 
999
TUBEHOLES
0
CIRCLE
8
TUBE_HOLES
10
 4.375 
20
 8.077724 
30
0.0
40
 .25 
999
TUBEHOLES
0
CIRCLE
8
TIE_RODS
10
 5 
20
 8.077724 
30
0.0
40
 .125 
0
CIRCLE
8
TIE_RODS
10
 5 
20
 8.077724 
30
0.0
40
 .1666667 
999
TUBEHOLES
0
CIRCLE
8
TUBE_HOLES
10
 .625 
20
 9.160256 
30
0.0
40
 .25 
999
TUBEHOLES
0
CIRCLE
8
TUBE_HOLES
10
 1.25 
20
 9.160256 
30
0.0
40
 .25 
999
TUBEHOLES
0
CIRCLE
8
TUBE_HOLES
10
 1.875 
20
 9.160256 
30
0.0
40
 .25 
999
TUBEHOLES
0
CIRCLE
8
TUBE_HOLES
10
 2.5 
20
 9.160256 
30
0.0
40
 .25 
999
TUBEHOLES
0
CIRCLE
8
TUBE_HOLES
10
 .3125 
20
 1.041266 
30
0.0
40
 .25 
999
TUBEHOLES
0
CIRCLE
8
TUBE_HOLES
10
 .9375 
20
 1.041266 
30
0.0
40
 .25 
999
TUBEHOLES
0
CIRCLE
8
TUBE_HOLES
10
 1.5625 
20
 1.041266 
30
0.0
40
 .25 
999
TUBEHOLES
0
CIRCLE
8
TUBE_HOLES
10
 2.1875 
20
 1.041266 
30
0.0
40
 .25 
999
TUBEHOLES
0
CIRCLE
8
TUBE_HOLES
10
 2.8125 
20
 1.041266 
30
0.0
40
 .25 
999
TUBEHOLES
0
CIRCLE
8
TUBE_HOLES
10
 3.4375 
20
 1.041266 
30
0.0
40
 .25 
999
TUBEHOLES
0
CIRCLE
8
TUBE_HOLES
10
 4.0625 
20
 1.041266 
30
0.0
40
 .25 
999
TUBEHOLES
0
CIRCLE
8
TUBE_HOLES
10
 4.6875 
20
 1.041266 
30
0.0
40
 .25 
999
TUBEHOLES
0
CIRCLE
8
TUBE_HOLES
10
 5.3125 
20
 1.041266 
30
0.0
40
 .25 
999
TUBEHOLES
0
CIRCLE
8
TUBE_HOLES
10
 5.9375 
20
 1.041266 
30
0.0
40
 .25 
999
TUBEHOLES
0
CIRCLE
8
TUBE_HOLES
10
 6.5625 
20
 1.041266 
30
0.0
40
 .25 
999
TUBEHOLES
0
CIRCLE
8
TUBE_HOLES
10
 7.1875 
20
 1.041266 
30
0.0
40
 .25 
999
TUBEHOLES
0
CIRCLE
8
TUBE_HOLES
10
 7.8125 
20
 1.041266 
30
0.0
40
 .25 
999
TUBEHOLES
0
CIRCLE
8
TUBE_HOLES
10
 8.4375 
20
 1.041266 
30
0.0
40
 .25 
999
TUBEHOLES
0
CIRCLE
8
TUBE_HOLES
10
 9.0625 
20
 1.041266 
30
0.0
40
 .25 
999
TUBEHOLES
0
CIRCLE
8
TUBE_HOLES
10
 .3125 
20
 2.123798 
30
0.0
40
 .25 
999
TUBEHOLES
0
CIRCLE
8
TUBE_HOLES
10
 .9375 
20
 2.123798 
30
0.0
40
 .25 
999
TUBEHOLES
0
CIRCLE
8
TUBE_HOLES
10
 1.5625 
20
 2.123798 
30
0.0
40
 .25 
999
TUBEHOLES
0
CIRCLE
8
TUBE_HOLES
10
 2.1875 
20
 2.123798 
30
0.0
40
 .25 
999
TUBEHOLES
0
CIRCLE
8
TUBE_HOLES
10
 2.8125 
20
 2.123798 
30
0.0
40
 .25 
999
TUBEHOLES
0
CIRCLE
8
TUBE_HOLES
10
 3.4375 
20
 2.123798 
30
0.0
40
 .25 
999
TUBEHOLES
0
CIRCLE
8
TUBE_HOLES
10
 4.0625 
20
 2.123798 
30
0.0
40
 .25 
999
TUBEHOLES
0
CIRCLE
8
TUBE_HOLES
10
 4.6875 
20
 2.123798 
30
0.0
40
 .25 
999
TUBEHOLES
0
CIRCLE
8
TUBE_HOLES
10
 5.3125 
20
 2.123798 
30
0.0
40
 .25 
999
TUBEHOLES
0
CIRCLE
8
TUBE_HOLES
10
 5.9375 
20
 2.123798 
30
0.0
40
 .25 
999
TUBEHOLES
0
CIRCLE
8
TUBE_HOLES
10
 6.5625 
20
 2.123798 
30
0.0
40
 .25 
999
TUBEHOLES
0
CIRCLE
8
TUBE_HOLES
10
 7.1875 
20
 2.123798 
30
0.0
40
 .25 
999
TUBEHOLES
0
CIRCLE
8
TUBE_HOLES
10
 7.8125 
20
 2.123798 
30
0.0
40
 .25 
999
TUBEHOLES
0
CIRCLE
8
TUBE_HOLES
10
 8.4375 
20
 2.123798 
30
0.0
40
 .25 
999
TUBEHOLES
0
CIRCLE
8
TUBE_HOLES
10
 9.0625 
20
 2.123798 
30
0.0
40
 .25 
999
TUBEHOLES
0
CIRCLE
8
TUBE_HOLES
10
 .3125 
20
 3.206331 
30
0.0
40
 .25 
999
TUBEHOLES
0
CIRCLE
8
TUBE_HOLES
10
 .9375 
20
 3.206331 
30
0.0
40
 .25 
999
TUBEHOLES
0
CIRCLE
8
TUBE_HOLES
10
 1.5625 
20
 3.206331 
30
0.0
40
 .25 
999
TUBEHOLES
0
CIRCLE
8
TUBE_HOLES
10
 2.1875 
20
 3.206331 
30
0.0
40
 .25 
999
TUBEHOLES
0
CIRCLE
8
TUBE_HOLES
10
 2.8125 
20
 3.206331 
30
0.0
40
 .25 
999
TUBEHOLES
0
CIRCLE
8
TUBE_HOLES
10
 3.4375 
20
 3.206331 
30
0.0
40
 .25 
999
TUBEHOLES
0
CIRCLE
8
TUBE_HOLES
10
 4.0625 
20
 3.206331 
30
0.0
40
 .25 
999
TUBEHOLES
0
CIRCLE
8
TUBE_HOLES
10
 4.6875 
20
 3.206331 
30
0.0
40
 .25 
999
TUBEHOLES
0
CIRCLE
8
TUBE_HOLES
10
 5.3125 
20
 3.206331 
30
0.0
40
 .25 
999
TUBEHOLES
0
CIRCLE
8
TUBE_HOLES
10
 5.9375 
20
 3.206331 
30
0.0
40
 .25 
999
TUBEHOLES
0
CIRCLE
8
TUBE_HOLES
10
 6.5625 
20
 3.206331 
30
0.0
40
 .25 
999
TUBEHOLES
0
CIRCLE
8
TUBE_HOLES
10
 7.1875 
20
 3.206331 
30
0.0
40
 .25 
999
TUBEHOLES
0
CIRCLE
8
TUBE_HOLES
10
 7.8125 
20
 3.206331 
30
0.0
40
 .25 
999
TUBEHOLES
0
CIRCLE
8
TUBE_HOLES
10
 8.4375 
20
 3.206331 
30
0.0
40
 .25 
999
TUBEHOLES
0
CIRCLE
8
TUBE_HOLES
10
 9.0625 
20
 3.206331 
30
0.0
40
 .25 
999
TUBEHOLES
0
CIRCLE
8
TUBE_HOLES
10
 .3125 
20
 4.288863 
30
0.0
40
 .25 
999
TUBEHOLES
0
CIRCLE
8
TUBE_HOLES
10
 .9375 
20
 4.288863 
30
0.0
40
 .25 
999
TUBEHOLES
0
CIRCLE
8
TUBE_HOLES
10
 1.5625 
20
 4.288863 
30
0.0
40
 .25 
999
TUBEHOLES
0
CIRCLE
8
TUBE_HOLES
10
 2.1875 
20
 4.288863 
30
0.0
40
 .25 
999
TUBEHOLES
0
CIRCLE
8
TUBE_HOLES
10
 2.8125 
20
 4.288863 
30
0.0
40
 .25 
999
TUBEHOLES
0
CIRCLE
8
TUBE_HOLES
10
 3.4375 
20
 4.288863 
30
0.0
40
 .25 
999
TUBEHOLES
0
CIRCLE
8
TUBE_HOLES
10
 4.0625 
20
 4.288863 
30
0.0
40
 .25 
999
TUBEHOLES
0
CIRCLE
8
TUBE_HOLES
10
 4.6875 
20
 4.288863 
30
0.0
40
 .25 
999
TUBEHOLES
0
CIRCLE
8
TUBE_HOLES
10
 5.3125 
20
 4.288863 
30
0.0
40
 .25 
999
TUBEHOLES
0
CIRCLE
8
TUBE_HOLES
10
 5.9375 
20
 4.288863 
30
0.0
40
 .25 
999
TUBEHOLES
0
CIRCLE
8
TUBE_HOLES
10
 6.5625 
20
 4.288863 
30
0.0
40
 .25 
999
TUBEHOLES
0
CIRCLE
8
TUBE_HOLES
10
 7.1875 
20
 4.288863 
30
0.0
40
 .25 
999
TUBEHOLES
0
CIRCLE
8
TUBE_HOLES
10
 7.8125 
20
 4.288863 
30
0.0
40
 .25 
999
TUBEHOLES
0
CIRCLE
8
TUBE_HOLES
10
 8.4375 
20
 4.288863 
30
0.0
40
 .25 
999
TUBEHOLES
0
CIRCLE
8
TUBE_HOLES
10
 .3125 
20
 5.371395 
30
0.0
40
 .25 
999
TUBEHOLES
0
CIRCLE
8
TUBE_HOLES
10
 .9375 
20
 5.371395 
30
0.0
40
 .25 
999
TUBEHOLES
0
CIRCLE
8
TUBE_HOLES
10
 1.5625 
20
 5.371395 
30
0.0
40
 .25 
999
TUBEHOLES
0
CIRCLE
8
TUBE_HOLES
10
 2.1875 
20
 5.371395 
30
0.0
40
 .25 
999
TUBEHOLES
0
CIRCLE
8
TUBE_HOLES
10
 2.8125 
20
 5.371395 
30
0.0
40
 .25 
999
TUBEHOLES
0
CIRCLE
8
TUBE_HOLES
10
 3.4375 
20
 5.371395 
30
0.0
40
 .25 
999
TUBEHOLES
0
CIRCLE
8
TUBE_HOLES
10
 4.0625 
20
 5.371395 
30
0.0
40
 .25 
999
TUBEHOLES
0
CIRCLE
8
TUBE_HOLES
10
 4.6875 
20
 5.371395 
30
0.0
40
 .25 
999
TUBEHOLES
0
CIRCLE
8
TUBE_HOLES
10
 5.3125 
20
 5.371395 
30
0.0
40
 .25 
999
TUBEHOLES
0
CIRCLE
8
TUBE_HOLES
10
 5.9375 
20
 5.371395 
30
0.0
40
 .25 
999
TUBEHOLES
0
CIRCLE
8
TUBE_HOLES
10
 6.5625 
20
 5.371395 
30
0.0
40
 .25 
999
TUBEHOLES
0
CIRCLE
8
TUBE_HOLES
10
 7.1875 
20
 5.371395 
30
0.0
40
 .25 
999
TUBEHOLES
0
CIRCLE
8
TUBE_HOLES
10
 7.8125 
20
 5.371395 
30
0.0
40
 .25 
999
TUBEHOLES
0
CIRCLE
8
TUBE_HOLES
10
 .3125 
20
 6.453927 
30
0.0
40
 .25 
999
TUBEHOLES
0
CIRCLE
8
TUBE_HOLES
10
 .9375 
20
 6.453927 
30
0.0
40
 .25 
999
TUBEHOLES
0
CIRCLE
8
TUBE_HOLES
10
 1.5625 
20
 6.453927 
30
0.0
40
 .25 
999
TUBEHOLES
0
CIRCLE
8
TUBE_HOLES
10
 2.1875 
20
 6.453927 
30
0.0
40
 .25 
999
TUBEHOLES
0
CIRCLE
8
TUBE_HOLES
10
 2.8125 
20
 6.453927 
30
0.0
40
 .25 
999
TUBEHOLES
0
CIRCLE
8
TUBE_HOLES
10
 3.4375 
20
 6.453927 
30
0.0
40
 .25 
999
TUBEHOLES
0
CIRCLE
8
TUBE_HOLES
10
 4.0625 
20
 6.453927 
30
0.0
40
 .25 
999
TUBEHOLES
0
CIRCLE
8
TUBE_HOLES
10
 4.6875 
20
 6.453927 
30
0.0
40
 .25 
999
TUBEHOLES
0
CIRCLE
8
TUBE_HOLES
10
 5.3125 
20
 6.453927 
30
0.0
40
 .25 
999
TUBEHOLES
0
CIRCLE
8
TUBE_HOLES
10
 5.9375 
20
 6.453927 
30
0.0
40
 .25 
999
TUBEHOLES
0
CIRCLE
8
TUBE_HOLES
10
 6.5625 
20
 6.453927 
30
0.0
40
 .25 
999
TUBEHOLES
0
CIRCLE
8
TUBE_HOLES
10
 .3125 
20
 7.536459 
30
0.0
40
 .25 
999
TUBEHOLES
0
CIRCLE
8
TUBE_HOLES
10
 .9375 
20
 7.536459 
30
0.0
40
 .25 
999
TUBEHOLES
0
CIRCLE
8
TUBE_HOLES
10
 1.5625 
20
 7.536459 
30
0.0
40
 .25 
999
TUBEHOLES
0
CIRCLE
8
TUBE_HOLES
10
 2.1875 
20
 7.536459 
30
0.0
40
 .25 
999
TUBEHOLES
0
CIRCLE
8
TUBE_HOLES
10
 2.8125 
20
 7.536459 
30
0.0
40
 .25 
999
TUBEHOLES
0
CIRCLE
8
TUBE_HOLES
10
 3.4375 
20
 7.536459 
30
0.0
40
 .25 
999
TUBEHOLES
0
CIRCLE
8
TUBE_HOLES
10
 4.0625 
20
 7.536459 
30
0.0
40
 .25 
999
TUBEHOLES
0
CIRCLE
8
TUBE_HOLES
10
 4.6875 
20
 7.536459 
30
0.0
40
 .25 
999
TUBEHOLES
0
CIRCLE
8
TUBE_HOLES
10
 5.3125 
20
 7.536459 
30
0.0
40
 .25 
999
TUBEHOLES
0
CIRCLE
8
TUBE_HOLES
10
 5.9375 
20
 7.536459 
30
0.0
40
 .25 
999
TUBEHOLES
0
CIRCLE
8
TUBE_HOLES
10
 .3125 
20
 8.618991 
30
0.0
40
 .25 
999
TUBEHOLES
0
CIRCLE
8
TUBE_HOLES
10
 .9375 
20
 8.618991 
30
0.0
40
 .25 
999
TUBEHOLES
0
CIRCLE
8
TUBE_HOLES
10
 1.5625 
20
 8.618991 
30
0.0
40
 .25 
999
TUBEHOLES
0
CIRCLE
8
TUBE_HOLES
10
 2.1875 
20
 8.618991 
30
0.0
40
 .25 
999
TUBEHOLES
0
CIRCLE
8
TUBE_HOLES
10
 2.8125 
20
 8.618991 
30
0.0
40
 .25 
999
TUBEHOLES
0
CIRCLE
8
TUBE_HOLES
10
 3.4375 
20
 8.618991 
30
0.0
40
 .25 
999
TUBEHOLES
0
CIRCLE
8
TUBE_HOLES
10
 4.0625 
20
 8.618991 
30
0.0
40
 .25 
999
TUBEHOLES
0
CIRCLE
8
TUBE_HOLES
10
-.625 
20
 .5 
30
0.0
40
 .25 
999
TUBEHOLES
0
CIRCLE
8
TUBE_HOLES
10
-1.25 
20
 .5 
30
0.0
40
 .25 
999
TUBEHOLES
0
CIRCLE
8
TUBE_HOLES
10
-1.875 
20
 .5 
30
0.0
40
 .25 
999
TUBEHOLES
0
CIRCLE
8
TUBE_HOLES
10
-2.5 
20
 .5 
30
0.0
40
 .25 
999
TUBEHOLES
0
CIRCLE
8
TUBE_HOLES
10
-3.125 
20
 .5 
30
0.0
40
 .25 
999
TUBEHOLES
0
CIRCLE
8
TUBE_HOLES
10
-3.75 
20
 .5 
30
0.0
40
 .25 
999
TUBEHOLES
0
CIRCLE
8
TUBE_HOLES
10
-4.375 
20
 .5 
30
0.0
40
 .25 
999
TUBEHOLES
0
CIRCLE
8
TUBE_HOLES
10
-5 
20
 .5 
30
0.0
40
 .25 
999
TUBEHOLES
0
CIRCLE
8
TUBE_HOLES
10
-5.625 
20
 .5 
30
0.0
40
 .25 
999
TUBEHOLES
0
CIRCLE
8
TUBE_HOLES
10
-6.25 
20
 .5 
30
0.0
40
 .25 
999
TUBEHOLES
0
CIRCLE
8
TUBE_HOLES
10
-6.875 
20
 .5 
30
0.0
40
 .25 
999
TUBEHOLES
0
CIRCLE
8
TUBE_HOLES
10
-7.5 
20
 .5 
30
0.0
40
 .25 
999
TUBEHOLES
0
CIRCLE
8
TUBE_HOLES
10
-8.125 
20
 .5 
30
0.0
40
 .25 
999
TUBEHOLES
0
CIRCLE
8
TUBE_HOLES
10
-8.75 
20
 .5 
30
0.0
40
 .25 
999
TUBEHOLES
0
CIRCLE
8
TUBE_HOLES
10
-9.375 
20
 .5 
30
0.0
40
 .25 
999
TUBEHOLES
0
CIRCLE
8
TUBE_HOLES
10
-.625 
20
 1.582532 
30
0.0
40
 .25 
999
TUBEHOLES
0
CIRCLE
8
TUBE_HOLES
10
-1.25 
20
 1.582532 
30
0.0
40
 .25 
999
TUBEHOLES
0
CIRCLE
8
TUBE_HOLES
10
-1.875 
20
 1.582532 
30
0.0
40
 .25 
999
TUBEHOLES
0
CIRCLE
8
TUBE_HOLES
10
-2.5 
20
 1.582532 
30
0.0
40
 .25 
999
TUBEHOLES
0
CIRCLE
8
TUBE_HOLES
10
-3.125 
20
 1.582532 
30
0.0
40
 .25 
999
TUBEHOLES
0
CIRCLE
8
TUBE_HOLES
10
-3.75 
20
 1.582532 
30
0.0
40
 .25 
999
TUBEHOLES
0
CIRCLE
8
TUBE_HOLES
10
-4.375 
20
 1.582532 
30
0.0
40
 .25 
999
TUBEHOLES
0
CIRCLE
8
TUBE_HOLES
10
-5 
20
 1.582532 
30
0.0
40
 .25 
999
TUBEHOLES
0
CIRCLE
8
TUBE_HOLES
10
-5.625 
20
 1.582532 
30
0.0
40
 .25 
999
TUBEHOLES
0
CIRCLE
8
TUBE_HOLES
10
-6.25 
20
 1.582532 
30
0.0
40
 .25 
999
TUBEHOLES
0
CIRCLE
8
TUBE_HOLES
10
-6.875 
20
 1.582532 
30
0.0
40
 .25 
999
TUBEHOLES
0
CIRCLE
8
TUBE_HOLES
10
-7.5 
20
 1.582532 
30
0.0
40
 .25 
999
TUBEHOLES
0
CIRCLE
8
TUBE_HOLES
10
-8.125 
20
 1.582532 
30
0.0
40
 .25 
999
TUBEHOLES
0
CIRCLE
8
TUBE_HOLES
10
-8.75 
20
 1.582532 
30
0.0
40
 .25 
999
TUBEHOLES
0
CIRCLE
8
TUBE_HOLES
10
-9.375 
20
 1.582532 
30
0.0
40
 .25 
999
TUBEHOLES
0
CIRCLE
8
TUBE_HOLES
10
-.625 
20
 2.665064 
30
0.0
40
 .25 
999
TUBEHOLES
0
CIRCLE
8
TUBE_HOLES
10
-1.25 
20
 2.665064 
30
0.0
40
 .25 
999
TUBEHOLES
0
CIRCLE
8
TUBE_HOLES
10
-1.875 
20
 2.665064 
30
0.0
40
 .25 
999
TUBEHOLES
0
CIRCLE
8
TUBE_HOLES
10
-2.5 
20
 2.665064 
30
0.0
40
 .25 
999
TUBEHOLES
0
CIRCLE
8
TUBE_HOLES
10
-3.125 
20
 2.665064 
30
0.0
40
 .25 
999
TUBEHOLES
0
CIRCLE
8
TUBE_HOLES
10
-3.75 
20
 2.665064 
30
0.0
40
 .25 
999
TUBEHOLES
0
CIRCLE
8
TUBE_HOLES
10
-4.375 
20
 2.665064 
30
0.0
40
 .25 
999
TUBEHOLES
0
CIRCLE
8
TUBE_HOLES
10
-5 
20
 2.665064 
30
0.0
40
 .25 
999
TUBEHOLES
0
CIRCLE
8
TUBE_HOLES
10
-5.625 
20
 2.665064 
30
0.0
40
 .25 
999
TUBEHOLES
0
CIRCLE
8
TUBE_HOLES
10
-6.25 
20
 2.665064 
30
0.0
40
 .25 
999
TUBEHOLES
0
CIRCLE
8
TUBE_HOLES
10
-6.875 
20
 2.665064 
30
0.0
40
 .25 
999
TUBEHOLES
0
CIRCLE
8
TUBE_HOLES
10
-7.5 
20
 2.665064 
30
0.0
40
 .25 
999
TUBEHOLES
0
CIRCLE
8
TUBE_HOLES
10
-8.125 
20
 2.665064 
30
0.0
40
 .25 
999
TUBEHOLES
0
CIRCLE
8
TUBE_HOLES
10
-8.75 
20
 2.665064 
30
0.0
40
 .25 
999
TUBEHOLES
0
CIRCLE
8
TUBE_HOLES
10
-.625 
20
 3.747597 
30
0.0
40
 .25 
999
TUBEHOLES
0
CIRCLE
8
TUBE_HOLES
10
-1.25 
20
 3.747597 
30
0.0
40
 .25 
999
TUBEHOLES
0
CIRCLE
8
TUBE_HOLES
10
-1.875 
20
 3.747597 
30
0.0
40
 .25 
999
TUBEHOLES
0
CIRCLE
8
TUBE_HOLES
10
-2.5 
20
 3.747597 
30
0.0
40
 .25 
999
TUBEHOLES
0
CIRCLE
8
TUBE_HOLES
10
-3.125 
20
 3.747597 
30
0.0
40
 .25 
999
TUBEHOLES
0
CIRCLE
8
TUBE_HOLES
10
-3.75 
20
 3.747597 
30
0.0
40
 .25 
999
TUBEHOLES
0
CIRCLE
8
TUBE_HOLES
10
-4.375 
20
 3.747597 
30
0.0
40
 .25 
999
TUBEHOLES
0
CIRCLE
8
TUBE_HOLES
10
-5 
20
 3.747597 
30
0.0
40
 .25 
999
TUBEHOLES
0
CIRCLE
8
TUBE_HOLES
10
-5.625 
20
 3.747597 
30
0.0
40
 .25 
999
TUBEHOLES
0
CIRCLE
8
TUBE_HOLES
10
-6.25 
20
 3.747597 
30
0.0
40
 .25 
999
TUBEHOLES
0
CIRCLE
8
TUBE_HOLES
10
-6.875 
20
 3.747597 
30
0.0
40
 .25 
999
TUBEHOLES
0
CIRCLE
8
TUBE_HOLES
10
-7.5 
20
 3.747597 
30
0.0
40
 .25 
999
TUBEHOLES
0
CIRCLE
8
TUBE_HOLES
10
-8.125 
20
 3.747597 
30
0.0
40
 .25 
999
TUBEHOLES
0
CIRCLE
8
TUBE_HOLES
10
-8.75 
20
 3.747597 
30
0.0
40
 .25 
999
TUBEHOLES
0
CIRCLE
8
TUBE_HOLES
10
-.625 
20
 4.830129 
30
0.0
40
 .25 
999
TUBEHOLES
0
CIRCLE
8
TUBE_HOLES
10
-1.25 
20
 4.830129 
30
0.0
40
 .25 
999
TUBEHOLES
0
CIRCLE
8
TUBE_HOLES
10
-1.875 
20
 4.830129 
30
0.0
40
 .25 
999
TUBEHOLES
0
CIRCLE
8
TUBE_HOLES
10
-2.5 
20
 4.830129 
30
0.0
40
 .25 
999
TUBEHOLES
0
CIRCLE
8
TUBE_HOLES
10
-3.125 
20
 4.830129 
30
0.0
40
 .25 
999
TUBEHOLES
0
CIRCLE
8
TUBE_HOLES
10
-3.75 
20
 4.830129 
30
0.0
40
 .25 
999
TUBEHOLES
0
CIRCLE
8
TUBE_HOLES
10
-4.375 
20
 4.830129 
30
0.0
40
 .25 
999
TUBEHOLES
0
CIRCLE
8
TUBE_HOLES
10
-5 
20
 4.830129 
30
0.0
40
 .25 
999
TUBEHOLES
0
CIRCLE
8
TUBE_HOLES
10
-5.625 
20
 4.830129 
30
0.0
40
 .25 
999
TUBEHOLES
0
CIRCLE
8
TUBE_HOLES
10
-6.25 
20
 4.830129 
30
0.0
40
 .25 
999
TUBEHOLES
0
CIRCLE
8
TUBE_HOLES
10
-6.875 
20
 4.830129 
30
0.0
40
 .25 
999
TUBEHOLES
0
CIRCLE
8
TUBE_HOLES
10
-7.5 
20
 4.830129 
30
0.0
40
 .25 
999
TUBEHOLES
0
CIRCLE
8
TUBE_HOLES
10
-8.125 
20
 4.830129 
30
0.0
40
 .25 
999
TUBEHOLES
0
CIRCLE
8
TUBE_HOLES
10
-.625 
20
 5.912661 
30
0.0
40
 .25 
999
TUBEHOLES
0
CIRCLE
8
TUBE_HOLES
10
-1.25 
20
 5.912661 
30
0.0
40
 .25 
999
TUBEHOLES
0
CIRCLE
8
TUBE_HOLES
10
-1.875 
20
 5.912661 
30
0.0
40
 .25 
999
TUBEHOLES
0
CIRCLE
8
TUBE_HOLES
10
-2.5 
20
 5.912661 
30
0.0
40
 .25 
999
TUBEHOLES
0
CIRCLE
8
TUBE_HOLES
10
-3.125 
20
 5.912661 
30
0.0
40
 .25 
999
TUBEHOLES
0
CIRCLE
8
TUBE_HOLES
10
-3.75 
20
 5.912661 
30
0.0
40
 .25 
999
TUBEHOLES
0
CIRCLE
8
TUBE_HOLES
10
-4.375 
20
 5.912661 
30
0.0
40
 .25 
999
TUBEHOLES
0
CIRCLE
8
TUBE_HOLES
10
-5 
20
 5.912661 
30
0.0
40
 .25 
999
TUBEHOLES
0
CIRCLE
8
TUBE_HOLES
10
-5.625 
20
 5.912661 
30
0.0
40
 .25 
999
TUBEHOLES
0
CIRCLE
8
TUBE_HOLES
10
-6.25 
20
 5.912661 
30
0.0
40
 .25 
999
TUBEHOLES
0
CIRCLE
8
TUBE_HOLES
10
-6.875 
20
 5.912661 
30
0.0
40
 .25 
999
TUBEHOLES
0
CIRCLE
8
TUBE_HOLES
10
-7.5 
20
 5.912661 
30
0.0
40
 .25 
999
TUBEHOLES
0
CIRCLE
8
TUBE_HOLES
10
-.625 
20
 6.995193 
30
0.0
40
 .25 
999
TUBEHOLES
0
CIRCLE
8
TUBE_HOLES
10
-1.25 
20
 6.995193 
30
0.0
40
 .25 
999
TUBEHOLES
0
CIRCLE
8
TUBE_HOLES
10
-1.875 
20
 6.995193 
30
0.0
40
 .25 
999
TUBEHOLES
0
CIRCLE
8
TUBE_HOLES
10
-2.5 
20
 6.995193 
30
0.0
40
 .25 
999
TUBEHOLES
0
CIRCLE
8
TUBE_HOLES
10
-3.125 
20
 6.995193 
30
0.0
40
 .25 
999
TUBEHOLES
0
CIRCLE
8
TUBE_HOLES
10
-3.75 
20
 6.995193 
30
0.0
40
 .25 
999
TUBEHOLES
0
CIRCLE
8
TUBE_HOLES
10
-4.375 
20
 6.995193 
30
0.0
40
 .25 
999
TUBEHOLES
0
CIRCLE
8
TUBE_HOLES
10
-5 
20
 6.995193 
30
0.0
40
 .25 
999
TUBEHOLES
0
CIRCLE
8
TUBE_HOLES
10
-5.625 
20
 6.995193 
30
0.0
40
 .25 
999
TUBEHOLES
0
CIRCLE
8
TUBE_HOLES
10
-6.25 
20
 6.995193 
30
0.0
40
 .25 
999
TUBEHOLES
0
CIRCLE
8
TUBE_HOLES
10
-.625 
20
 8.077724 
30
0.0
40
 .25 
999
TUBEHOLES
0
CIRCLE
8
TUBE_HOLES
10
-1.25 
20
 8.077724 
30
0.0
40
 .25 
999
TUBEHOLES
0
CIRCLE
8
TUBE_HOLES
10
-1.875 
20
 8.077724 
30
0.0
40
 .25 
999
TUBEHOLES
0
CIRCLE
8
TUBE_HOLES
10
-2.5 
20
 8.077724 
30
0.0
40
 .25 
999
TUBEHOLES
0
CIRCLE
8
TUBE_HOLES
10
-3.125 
20
 8.077724 
30
0.0
40
 .25 
999
TUBEHOLES
0
CIRCLE
8
TUBE_HOLES
10
-3.75 
20
 8.077724 
30
0.0
40
 .25 
999
TUBEHOLES
0
CIRCLE
8
TUBE_HOLES
10
-4.375 
20
 8.077724 
30
0.0
40
 .25 
999
TUBEHOLES
0
CIRCLE
8
TIE_RODS
10
-5 
20
 8.077724 
30
0.0
40
 .125 
0
CIRCLE
8
TIE_RODS
10
-5 
20
 8.077724 
30
0.0
40
 .1666667 
999
TUBEHOLES
0
CIRCLE
8
TUBE_HOLES
10
-.625 
20
 9.160256 
30
0.0
40
 .25 
999
TUBEHOLES
0
CIRCLE
8
TUBE_HOLES
10
-1.25 
20
 9.160256 
30
0.0
40
 .25 
999
TUBEHOLES
0
CIRCLE
8
TUBE_HOLES
10
-1.875 
20
 9.160256 
30
0.0
40
 .25 
999
TUBEHOLES
0
CIRCLE
8
TUBE_HOLES
10
-2.5 
20
 9.160256 
30
0.0
40
 .25 
999
TUBEHOLES
0
CIRCLE
8
TUBE_HOLES
10
-.3125 
20
 1.041266 
30
0.0
40
 .25 
999
TUBEHOLES
0
CIRCLE
8
TUBE_HOLES
10
-.9375 
20
 1.041266 
30
0.0
40
 .25 
999
TUBEHOLES
0
CIRCLE
8
TUBE_HOLES
10
-1.5625 
20
 1.041266 
30
0.0
40
 .25 
999
TUBEHOLES
0
CIRCLE
8
TUBE_HOLES
10
-2.1875 
20
 1.041266 
30
0.0
40
 .25 
999
TUBEHOLES
0
CIRCLE
8
TUBE_HOLES
10
-2.8125 
20
 1.041266 
30
0.0
40
 .25 
999
TUBEHOLES
0
CIRCLE
8
TUBE_HOLES
10
-3.4375 
20
 1.041266 
30
0.0
40
 .25 
999
TUBEHOLES
0
CIRCLE
8
TUBE_HOLES
10
-4.0625 
20
 1.041266 
30
0.0
40
 .25 
999
TUBEHOLES
0
CIRCLE
8
TUBE_HOLES
10
-4.6875 
20
 1.041266 
30
0.0
40
 .25 
999
TUBEHOLES
0
CIRCLE
8
TUBE_HOLES
10
-5.3125 
20
 1.041266 
30
0.0
40
 .25 
999
TUBEHOLES
0
CIRCLE
8
TUBE_HOLES
10
-5.9375 
20
 1.041266 
30
0.0
40
 .25 
999
TUBEHOLES
0
CIRCLE
8
TUBE_HOLES
10
-6.5625 
20
 1.041266 
30
0.0
40
 .25 
999
TUBEHOLES
0
CIRCLE
8
TUBE_HOLES
10
-7.1875 
20
 1.041266 
30
0.0
40
 .25 
999
TUBEHOLES
0
CIRCLE
8
TUBE_HOLES
10
-7.8125 
20
 1.041266 
30
0.0
40
 .25 
999
TUBEHOLES
0
CIRCLE
8
TUBE_HOLES
10
-8.4375 
20
 1.041266 
30
0.0
40
 .25 
999
TUBEHOLES
0
CIRCLE
8
TUBE_HOLES
10
-9.0625 
20
 1.041266 
30
0.0
40
 .25 
999
TUBEHOLES
0
CIRCLE
8
TUBE_HOLES
10
-.3125 
20
 2.123798 
30
0.0
40
 .25 
999
TUBEHOLES
0
CIRCLE
8
TUBE_HOLES
10
-.9375 
20
 2.123798 
30
0.0
40
 .25 
999
TUBEHOLES
0
CIRCLE
8
TUBE_HOLES
10
-1.5625 
20
 2.123798 
30
0.0
40
 .25 
999
TUBEHOLES
0
CIRCLE
8
TUBE_HOLES
10
-2.1875 
20
 2.123798 
30
0.0
40
 .25 
999
TUBEHOLES
0
CIRCLE
8
TUBE_HOLES
10
-2.8125 
20
 2.123798 
30
0.0
40
 .25 
999
TUBEHOLES
0
CIRCLE
8
TUBE_HOLES
10
-3.4375 
20
 2.123798 
30
0.0
40
 .25 
999
TUBEHOLES
0
CIRCLE
8
TUBE_HOLES
10
-4.0625 
20
 2.123798 
30
0.0
40
 .25 
999
TUBEHOLES
0
CIRCLE
8
TUBE_HOLES
10
-4.6875 
20
 2.123798 
30
0.0
40
 .25 
999
TUBEHOLES
0
CIRCLE
8
TUBE_HOLES
10
-5.3125 
20
 2.123798 
30
0.0
40
 .25 
999
TUBEHOLES
0
CIRCLE
8
TUBE_HOLES
10
-5.9375 
20
 2.123798 
30
0.0
40
 .25 
999
TUBEHOLES
0
CIRCLE
8
TUBE_HOLES
10
-6.5625 
20
 2.123798 
30
0.0
40
 .25 
999
TUBEHOLES
0
CIRCLE
8
TUBE_HOLES
10
-7.1875 
20
 2.123798 
30
0.0
40
 .25 
999
TUBEHOLES
0
CIRCLE
8
TUBE_HOLES
10
-7.8125 
20
 2.123798 
30
0.0
40
 .25 
999
TUBEHOLES
0
CIRCLE
8
TUBE_HOLES
10
-8.4375 
20
 2.123798 
30
0.0
40
 .25 
999
TUBEHOLES
0
CIRCLE
8
TUBE_HOLES
10
-9.0625 
20
 2.123798 
30
0.0
40
 .25 
999
TUBEHOLES
0
CIRCLE
8
TUBE_HOLES
10
-.3125 
20
 3.206331 
30
0.0
40
 .25 
999
TUBEHOLES
0
CIRCLE
8
TUBE_HOLES
10
-.9375 
20
 3.206331 
30
0.0
40
 .25 
999
TUBEHOLES
0
CIRCLE
8
TUBE_HOLES
10
-1.5625 
20
 3.206331 
30
0.0
40
 .25 
999
TUBEHOLES
0
CIRCLE
8
TUBE_HOLES
10
-2.1875 
20
 3.206331 
30
0.0
40
 .25 
999
TUBEHOLES
0
CIRCLE
8
TUBE_HOLES
10
-2.8125 
20
 3.206331 
30
0.0
40
 .25 
999
TUBEHOLES
0
CIRCLE
8
TUBE_HOLES
10
-3.4375 
20
 3.206331 
30
0.0
40
 .25 
999
TUBEHOLES
0
CIRCLE
8
TUBE_HOLES
10
-4.0625 
20
 3.206331 
30
0.0
40
 .25 
999
TUBEHOLES
0
CIRCLE
8
TUBE_HOLES
10
-4.6875 
20
 3.206331 
30
0.0
40
 .25 
999
TUBEHOLES
0
CIRCLE
8
TUBE_HOLES
10
-5.3125 
20
 3.206331 
30
0.0
40
 .25 
999
TUBEHOLES
0
CIRCLE
8
TUBE_HOLES
10
-5.9375 
20
 3.206331 
30
0.0
40
 .25 
999
TUBEHOLES
0
CIRCLE
8
TUBE_HOLES
10
-6.5625 
20
 3.206331 
30
0.0
40
 .25 
999
TUBEHOLES
0
CIRCLE
8
TUBE_HOLES
10
-7.1875 
20
 3.206331 
30
0.0
40
 .25 
999
TUBEHOLES
0
CIRCLE
8
TUBE_HOLES
10
-7.8125 
20
 3.206331 
30
0.0
40
 .25 
999
TUBEHOLES
0
CIRCLE
8
TUBE_HOLES
10
-8.4375 
20
 3.206331 
30
0.0
40
 .25 
999
TUBEHOLES
0
CIRCLE
8
TUBE_HOLES
10
-9.0625 
20
 3.206331 
30
0.0
40
 .25 
999
TUBEHOLES
0
CIRCLE
8
TUBE_HOLES
10
-.3125 
20
 4.288863 
30
0.0
40
 .25 
999
TUBEHOLES
0
CIRCLE
8
TUBE_HOLES
10
-.9375 
20
 4.288863 
30
0.0
40
 .25 
999
TUBEHOLES
0
CIRCLE
8
TUBE_HOLES
10
-1.5625 
20
 4.288863 
30
0.0
40
 .25 
999
TUBEHOLES
0
CIRCLE
8
TUBE_HOLES
10
-2.1875 
20
 4.288863 
30
0.0
40
 .25 
999
TUBEHOLES
0
CIRCLE
8
TUBE_HOLES
10
-2.8125 
20
 4.288863 
30
0.0
40
 .25 
999
TUBEHOLES
0
CIRCLE
8
TUBE_HOLES
10
-3.4375 
20
 4.288863 
30
0.0
40
 .25 
999
TUBEHOLES
0
CIRCLE
8
TUBE_HOLES
10
-4.0625 
20
 4.288863 
30
0.0
40
 .25 
999
TUBEHOLES
0
CIRCLE
8
TUBE_HOLES
10
-4.6875 
20
 4.288863 
30
0.0
40
 .25 
999
TUBEHOLES
0
CIRCLE
8
TUBE_HOLES
10
-5.3125 
20
 4.288863 
30
0.0
40
 .25 
999
TUBEHOLES
0
CIRCLE
8
TUBE_HOLES
10
-5.9375 
20
 4.288863 
30
0.0
40
 .25 
999
TUBEHOLES
0
CIRCLE
8
TUBE_HOLES
10
-6.5625 
20
 4.288863 
30
0.0
40
 .25 
999
TUBEHOLES
0
CIRCLE
8
TUBE_HOLES
10
-7.1875 
20
 4.288863 
30
0.0
40
 .25 
999
TUBEHOLES
0
CIRCLE
8
TUBE_HOLES
10
-7.8125 
20
 4.288863 
30
0.0
40
 .25 
999
TUBEHOLES
0
CIRCLE
8
TUBE_HOLES
10
-8.4375 
20
 4.288863 
30
0.0
40
 .25 
999
TUBEHOLES
0
CIRCLE
8
TUBE_HOLES
10
-.3125 
20
 5.371395 
30
0.0
40
 .25 
999
TUBEHOLES
0
CIRCLE
8
TUBE_HOLES
10
-.9375 
20
 5.371395 
30
0.0
40
 .25 
999
TUBEHOLES
0
CIRCLE
8
TUBE_HOLES
10
-1.5625 
20
 5.371395 
30
0.0
40
 .25 
999
TUBEHOLES
0
CIRCLE
8
TUBE_HOLES
10
-2.1875 
20
 5.371395 
30
0.0
40
 .25 
999
TUBEHOLES
0
CIRCLE
8
TUBE_HOLES
10
-2.8125 
20
 5.371395 
30
0.0
40
 .25 
999
TUBEHOLES
0
CIRCLE
8
TUBE_HOLES
10
-3.4375 
20
 5.371395 
30
0.0
40
 .25 
999
TUBEHOLES
0
CIRCLE
8
TUBE_HOLES
10
-4.0625 
20
 5.371395 
30
0.0
40
 .25 
999
TUBEHOLES
0
CIRCLE
8
TUBE_HOLES
10
-4.6875 
20
 5.371395 
30
0.0
40
 .25 
999
TUBEHOLES
0
CIRCLE
8
TUBE_HOLES
10
-5.3125 
20
 5.371395 
30
0.0
40
 .25 
999
TUBEHOLES
0
CIRCLE
8
TUBE_HOLES
10
-5.9375 
20
 5.371395 
30
0.0
40
 .25 
999
TUBEHOLES
0
CIRCLE
8
TUBE_HOLES
10
-6.5625 
20
 5.371395 
30
0.0
40
 .25 
999
TUBEHOLES
0
CIRCLE
8
TUBE_HOLES
10
-7.1875 
20
 5.371395 
30
0.0
40
 .25 
999
TUBEHOLES
0
CIRCLE
8
TUBE_HOLES
10
-7.8125 
20
 5.371395 
30
0.0
40
 .25 
999
TUBEHOLES
0
CIRCLE
8
TUBE_HOLES
10
-.3125 
20
 6.453927 
30
0.0
40
 .25 
999
TUBEHOLES
0
CIRCLE
8
TUBE_HOLES
10
-.9375 
20
 6.453927 
30
0.0
40
 .25 
999
TUBEHOLES
0
CIRCLE
8
TUBE_HOLES
10
-1.5625 
20
 6.453927 
30
0.0
40
 .25 
999
TUBEHOLES
0
CIRCLE
8
TUBE_HOLES
10
-2.1875 
20
 6.453927 
30
0.0
40
 .25 
999
TUBEHOLES
0
CIRCLE
8
TUBE_HOLES
10
-2.8125 
20
 6.453927 
30
0.0
40
 .25 
999
TUBEHOLES
0
CIRCLE
8
TUBE_HOLES
10
-3.4375 
20
 6.453927 
30
0.0
40
 .25 
999
TUBEHOLES
0
CIRCLE
8
TUBE_HOLES
10
-4.0625 
20
 6.453927 
30
0.0
40
 .25 
999
TUBEHOLES
0
CIRCLE
8
TUBE_HOLES
10
-4.6875 
20
 6.453927 
30
0.0
40
 .25 
999
TUBEHOLES
0
CIRCLE
8
TUBE_HOLES
10
-5.3125 
20
 6.453927 
30
0.0
40
 .25 
999
TUBEHOLES
0
CIRCLE
8
TUBE_HOLES
10
-5.9375 
20
 6.453927 
30
0.0
40
 .25 
999
TUBEHOLES
0
CIRCLE
8
TUBE_HOLES
10
-6.5625 
20
 6.453927 
30
0.0
40
 .25 
999
TUBEHOLES
0
CIRCLE
8
TUBE_HOLES
10
-.3125 
20
 7.536459 
30
0.0
40
 .25 
999
TUBEHOLES
0
CIRCLE
8
TUBE_HOLES
10
-.9375 
20
 7.536459 
30
0.0
40
 .25 
999
TUBEHOLES
0
CIRCLE
8
TUBE_HOLES
10
-1.5625 
20
 7.536459 
30
0.0
40
 .25 
999
TUBEHOLES
0
CIRCLE
8
TUBE_HOLES
10
-2.1875 
20
 7.536459 
30
0.0
40
 .25 
999
TUBEHOLES
0
CIRCLE
8
TUBE_HOLES
10
-2.8125 
20
 7.536459 
30
0.0
40
 .25 
999
TUBEHOLES
0
CIRCLE
8
TUBE_HOLES
10
-3.4375 
20
 7.536459 
30
0.0
40
 .25 
999
TUBEHOLES
0
CIRCLE
8
TUBE_HOLES
10
-4.0625 
20
 7.536459 
30
0.0
40
 .25 
999
TUBEHOLES
0
CIRCLE
8
TUBE_HOLES
10
-4.6875 
20
 7.536459 
30
0.0
40
 .25 
999
TUBEHOLES
0
CIRCLE
8
TUBE_HOLES
10
-5.3125 
20
 7.536459 
30
0.0
40
 .25 
999
TUBEHOLES
0
CIRCLE
8
TUBE_HOLES
10
-5.9375 
20
 7.536459 
30
0.0
40
 .25 
999
TUBEHOLES
0
CIRCLE
8
TUBE_HOLES
10
-.3125 
20
 8.618991 
30
0.0
40
 .25 
999
TUBEHOLES
0
CIRCLE
8
TUBE_HOLES
10
-.9375 
20
 8.618991 
30
0.0
40
 .25 
999
TUBEHOLES
0
CIRCLE
8
TUBE_HOLES
10
-1.5625 
20
 8.618991 
30
0.0
40
 .25 
999
TUBEHOLES
0
CIRCLE
8
TUBE_HOLES
10
-2.1875 
20
 8.618991 
30
0.0
40
 .25 
999
TUBEHOLES
0
CIRCLE
8
TUBE_HOLES
10
-2.8125 
20
 8.618991 
30
0.0
40
 .25 
999
TUBEHOLES
0
CIRCLE
8
TUBE_HOLES
10
-3.4375 
20
 8.618991 
30
0.0
40
 .25 
999
TUBEHOLES
0
CIRCLE
8
TUBE_HOLES
10
-4.0625 
20
 8.618991 
30
0.0
40
 .25 
999
TUBEHOLES
0
CIRCLE
8
TUBE_HOLES
10
-.625 
20
-.5 
30
0.0
40
 .25 
999
TUBEHOLES
0
CIRCLE
8
TUBE_HOLES
10
-1.25 
20
-.5 
30
0.0
40
 .25 
999
TUBEHOLES
0
CIRCLE
8
TUBE_HOLES
10
-1.875 
20
-.5 
30
0.0
40
 .25 
999
TUBEHOLES
0
CIRCLE
8
TUBE_HOLES
10
-2.5 
20
-.5 
30
0.0
40
 .25 
999
TUBEHOLES
0
CIRCLE
8
TUBE_HOLES
10
-3.125 
20
-.5 
30
0.0
40
 .25 
999
TUBEHOLES
0
CIRCLE
8
TUBE_HOLES
10
-3.75 
20
-.5 
30
0.0
40
 .25 
999
TUBEHOLES
0
CIRCLE
8
TUBE_HOLES
10
-4.375 
20
-.5 
30
0.0
40
 .25 
999
TUBEHOLES
0
CIRCLE
8
TUBE_HOLES
10
-5 
20
-.5 
30
0.0
40
 .25 
999
TUBEHOLES
0
CIRCLE
8
TUBE_HOLES
10
-5.625 
20
-.5 
30
0.0
40
 .25 
999
TUBEHOLES
0
CIRCLE
8
TUBE_HOLES
10
-6.25 
20
-.5 
30
0.0
40
 .25 
999
TUBEHOLES
0
CIRCLE
8
TUBE_HOLES
10
-6.875 
20
-.5 
30
0.0
40
 .25 
999
TUBEHOLES
0
CIRCLE
8
TUBE_HOLES
10
-7.5 
20
-.5 
30
0.0
40
 .25 
999
TUBEHOLES
0
CIRCLE
8
TUBE_HOLES
10
-8.125 
20
-.5 
30
0.0
40
 .25 
999
TUBEHOLES
0
CIRCLE
8
TUBE_HOLES
10
-8.75 
20
-.5 
30
0.0
40
 .25 
999
TUBEHOLES
0
CIRCLE
8
TUBE_HOLES
10
-9.375 
20
-.5 
30
0.0
40
 .25 
999
TUBEHOLES
0
CIRCLE
8
TUBE_HOLES
10
-.625 
20
-1.582532 
30
0.0
40
 .25 
999
TUBEHOLES
0
CIRCLE
8
TUBE_HOLES
10
-1.25 
20
-1.582532 
30
0.0
40
 .25 
999
TUBEHOLES
0
CIRCLE
8
TUBE_HOLES
10
-1.875 
20
-1.582532 
30
0.0
40
 .25 
999
TUBEHOLES
0
CIRCLE
8
TUBE_HOLES
10
-2.5 
20
-1.582532 
30
0.0
40
 .25 
999
TUBEHOLES
0
CIRCLE
8
TUBE_HOLES
10
-3.125 
20
-1.582532 
30
0.0
40
 .25 
999
TUBEHOLES
0
CIRCLE
8
TUBE_HOLES
10
-3.75 
20
-1.582532 
30
0.0
40
 .25 
999
TUBEHOLES
0
CIRCLE
8
TUBE_HOLES
10
-4.375 
20
-1.582532 
30
0.0
40
 .25 
999
TUBEHOLES
0
CIRCLE
8
TUBE_HOLES
10
-5 
20
-1.582532 
30
0.0
40
 .25 
999
TUBEHOLES
0
CIRCLE
8
TUBE_HOLES
10
-5.625 
20
-1.582532 
30
0.0
40
 .25 
999
TUBEHOLES
0
CIRCLE
8
TUBE_HOLES
10
-6.25 
20
-1.582532 
30
0.0
40
 .25 
999
TUBEHOLES
0
CIRCLE
8
TUBE_HOLES
10
-6.875 
20
-1.582532 
30
0.0
40
 .25 
999
TUBEHOLES
0
CIRCLE
8
TUBE_HOLES
10
-7.5 
20
-1.582532 
30
0.0
40
 .25 
999
TUBEHOLES
0
CIRCLE
8
TUBE_HOLES
10
-8.125 
20
-1.582532 
30
0.0
40
 .25 
999
TUBEHOLES
0
CIRCLE
8
TUBE_HOLES
10
-8.75 
20
-1.582532 
30
0.0
40
 .25 
999
TUBEHOLES
0
CIRCLE
8
TUBE_HOLES
10
-9.375 
20
-1.582532 
30
0.0
40
 .25 
999
TUBEHOLES
0
CIRCLE
8
TUBE_HOLES
10
-.625 
20
-2.665064 
30
0.0
40
 .25 
999
TUBEHOLES
0
CIRCLE
8
TUBE_HOLES
10
-1.25 
20
-2.665064 
30
0.0
40
 .25 
999
TUBEHOLES
0
CIRCLE
8
TUBE_HOLES
10
-1.875 
20
-2.665064 
30
0.0
40
 .25 
999
TUBEHOLES
0
CIRCLE
8
TUBE_HOLES
10
-2.5 
20
-2.665064 
30
0.0
40
 .25 
999
TUBEHOLES
0
CIRCLE
8
TUBE_HOLES
10
-3.125 
20
-2.665064 
30
0.0
40
 .25 
999
TUBEHOLES
0
CIRCLE
8
TUBE_HOLES
10
-3.75 
20
-2.665064 
30
0.0
40
 .25 
999
TUBEHOLES
0
CIRCLE
8
TUBE_HOLES
10
-4.375 
20
-2.665064 
30
0.0
40
 .25 
999
TUBEHOLES
0
CIRCLE
8
TUBE_HOLES
10
-5 
20
-2.665064 
30
0.0
40
 .25 
999
TUBEHOLES
0
CIRCLE
8
TUBE_HOLES
10
-5.625 
20
-2.665064 
30
0.0
40
 .25 
999
TUBEHOLES
0
CIRCLE
8
TUBE_HOLES
10
-6.25 
20
-2.665064 
30
0.0
40
 .25 
999
TUBEHOLES
0
CIRCLE
8
TUBE_HOLES
10
-6.875 
20
-2.665064 
30
0.0
40
 .25 
999
TUBEHOLES
0
CIRCLE
8
TUBE_HOLES
10
-7.5 
20
-2.665064 
30
0.0
40
 .25 
999
TUBEHOLES
0
CIRCLE
8
TUBE_HOLES
10
-8.125 
20
-2.665064 
30
0.0
40
 .25 
999
TUBEHOLES
0
CIRCLE
8
TUBE_HOLES
10
-8.75 
20
-2.665064 
30
0.0
40
 .25 
999
TUBEHOLES
0
CIRCLE
8
TUBE_HOLES
10
-.625 
20
-3.747597 
30
0.0
40
 .25 
999
TUBEHOLES
0
CIRCLE
8
TUBE_HOLES
10
-1.25 
20
-3.747597 
30
0.0
40
 .25 
999
TUBEHOLES
0
CIRCLE
8
TUBE_HOLES
10
-1.875 
20
-3.747597 
30
0.0
40
 .25 
999
TUBEHOLES
0
CIRCLE
8
TUBE_HOLES
10
-2.5 
20
-3.747597 
30
0.0
40
 .25 
999
TUBEHOLES
0
CIRCLE
8
TUBE_HOLES
10
-3.125 
20
-3.747597 
30
0.0
40
 .25 
999
TUBEHOLES
0
CIRCLE
8
TUBE_HOLES
10
-3.75 
20
-3.747597 
30
0.0
40
 .25 
999
TUBEHOLES
0
CIRCLE
8
TUBE_HOLES
10
-4.375 
20
-3.747597 
30
0.0
40
 .25 
999
TUBEHOLES
0
CIRCLE
8
TUBE_HOLES
10
-5 
20
-3.747597 
30
0.0
40
 .25 
999
TUBEHOLES
0
CIRCLE
8
TUBE_HOLES
10
-5.625 
20
-3.747597 
30
0.0
40
 .25 
999
TUBEHOLES
0
CIRCLE
8
TUBE_HOLES
10
-6.25 
20
-3.747597 
30
0.0
40
 .25 
999
TUBEHOLES
0
CIRCLE
8
TUBE_HOLES
10
-6.875 
20
-3.747597 
30
0.0
40
 .25 
999
TUBEHOLES
0
CIRCLE
8
TUBE_HOLES
10
-7.5 
20
-3.747597 
30
0.0
40
 .25 
999
TUBEHOLES
0
CIRCLE
8
TUBE_HOLES
10
-8.125 
20
-3.747597 
30
0.0
40
 .25 
999
TUBEHOLES
0
CIRCLE
8
TUBE_HOLES
10
-8.75 
20
-3.747597 
30
0.0
40
 .25 
999
TUBEHOLES
0
CIRCLE
8
TUBE_HOLES
10
-.625 
20
-4.830129 
30
0.0
40
 .25 
999
TUBEHOLES
0
CIRCLE
8
TUBE_HOLES
10
-1.25 
20
-4.830129 
30
0.0
40
 .25 
999
TUBEHOLES
0
CIRCLE
8
TUBE_HOLES
10
-1.875 
20
-4.830129 
30
0.0
40
 .25 
999
TUBEHOLES
0
CIRCLE
8
TUBE_HOLES
10
-2.5 
20
-4.830129 
30
0.0
40
 .25 
999
TUBEHOLES
0
CIRCLE
8
TUBE_HOLES
10
-3.125 
20
-4.830129 
30
0.0
40
 .25 
999
TUBEHOLES
0
CIRCLE
8
TUBE_HOLES
10
-3.75 
20
-4.830129 
30
0.0
40
 .25 
999
TUBEHOLES
0
CIRCLE
8
TUBE_HOLES
10
-4.375 
20
-4.830129 
30
0.0
40
 .25 
999
TUBEHOLES
0
CIRCLE
8
TUBE_HOLES
10
-5 
20
-4.830129 
30
0.0
40
 .25 
999
TUBEHOLES
0
CIRCLE
8
TUBE_HOLES
10
-5.625 
20
-4.830129 
30
0.0
40
 .25 
999
TUBEHOLES
0
CIRCLE
8
TUBE_HOLES
10
-6.25 
20
-4.830129 
30
0.0
40
 .25 
999
TUBEHOLES
0
CIRCLE
8
TUBE_HOLES
10
-6.875 
20
-4.830129 
30
0.0
40
 .25 
999
TUBEHOLES
0
CIRCLE
8
TUBE_HOLES
10
-7.5 
20
-4.830129 
30
0.0
40
 .25 
999
TUBEHOLES
0
CIRCLE
8
TUBE_HOLES
10
-8.125 
20
-4.830129 
30
0.0
40
 .25 
999
TUBEHOLES
0
CIRCLE
8
TUBE_HOLES
10
-.625 
20
-5.912661 
30
0.0
40
 .25 
999
TUBEHOLES
0
CIRCLE
8
TUBE_HOLES
10
-1.25 
20
-5.912661 
30
0.0
40
 .25 
999
TUBEHOLES
0
CIRCLE
8
TUBE_HOLES
10
-1.875 
20
-5.912661 
30
0.0
40
 .25 
999
TUBEHOLES
0
CIRCLE
8
TUBE_HOLES
10
-2.5 
20
-5.912661 
30
0.0
40
 .25 
999
TUBEHOLES
0
CIRCLE
8
TUBE_HOLES
10
-3.125 
20
-5.912661 
30
0.0
40
 .25 
999
TUBEHOLES
0
CIRCLE
8
TUBE_HOLES
10
-3.75 
20
-5.912661 
30
0.0
40
 .25 
999
TUBEHOLES
0
CIRCLE
8
TUBE_HOLES
10
-4.375 
20
-5.912661 
30
0.0
40
 .25 
999
TUBEHOLES
0
CIRCLE
8
TUBE_HOLES
10
-5 
20
-5.912661 
30
0.0
40
 .25 
999
TUBEHOLES
0
CIRCLE
8
TUBE_HOLES
10
-5.625 
20
-5.912661 
30
0.0
40
 .25 
999
TUBEHOLES
0
CIRCLE
8
TUBE_HOLES
10
-6.25 
20
-5.912661 
30
0.0
40
 .25 
999
TUBEHOLES
0
CIRCLE
8
TUBE_HOLES
10
-6.875 
20
-5.912661 
30
0.0
40
 .25 
999
TUBEHOLES
0
CIRCLE
8
TUBE_HOLES
10
-7.5 
20
-5.912661 
30
0.0
40
 .25 
999
TUBEHOLES
0
CIRCLE
8
TUBE_HOLES
10
-.625 
20
-6.995193 
30
0.0
40
 .25 
999
TUBEHOLES
0
CIRCLE
8
TUBE_HOLES
10
-1.25 
20
-6.995193 
30
0.0
40
 .25 
999
TUBEHOLES
0
CIRCLE
8
TUBE_HOLES
10
-1.875 
20
-6.995193 
30
0.0
40
 .25 
999
TUBEHOLES
0
CIRCLE
8
TUBE_HOLES
10
-2.5 
20
-6.995193 
30
0.0
40
 .25 
999
TUBEHOLES
0
CIRCLE
8
TUBE_HOLES
10
-3.125 
20
-6.995193 
30
0.0
40
 .25 
999
TUBEHOLES
0
CIRCLE
8
TUBE_HOLES
10
-3.75 
20
-6.995193 
30
0.0
40
 .25 
999
TUBEHOLES
0
CIRCLE
8
TUBE_HOLES
10
-4.375 
20
-6.995193 
30
0.0
40
 .25 
999
TUBEHOLES
0
CIRCLE
8
TUBE_HOLES
10
-5 
20
-6.995193 
30
0.0
40
 .25 
999
TUBEHOLES
0
CIRCLE
8
TUBE_HOLES
10
-5.625 
20
-6.995193 
30
0.0
40
 .25 
999
TUBEHOLES
0
CIRCLE
8
TUBE_HOLES
10
-6.25 
20
-6.995193 
30
0.0
40
 .25 
999
TUBEHOLES
0
CIRCLE
8
TUBE_HOLES
10
-.625 
20
-8.077724 
30
0.0
40
 .25 
999
TUBEHOLES
0
CIRCLE
8
TUBE_HOLES
10
-1.25 
20
-8.077724 
30
0.0
40
 .25 
999
TUBEHOLES
0
CIRCLE
8
TUBE_HOLES
10
-1.875 
20
-8.077724 
30
0.0
40
 .25 
999
TUBEHOLES
0
CIRCLE
8
TUBE_HOLES
10
-2.5 
20
-8.077724 
30
0.0
40
 .25 
999
TUBEHOLES
0
CIRCLE
8
TUBE_HOLES
10
-3.125 
20
-8.077724 
30
0.0
40
 .25 
999
TUBEHOLES
0
CIRCLE
8
TUBE_HOLES
10
-3.75 
20
-8.077724 
30
0.0
40
 .25 
999
TUBEHOLES
0
CIRCLE
8
TUBE_HOLES
10
-4.375 
20
-8.077724 
30
0.0
40
 .25 
999
TUBEHOLES
0
CIRCLE
8
TIE_RODS
10
-5 
20
-8.077724 
30
0.0
40
 .125 
0
CIRCLE
8
TIE_RODS
10
-5 
20
-8.077724 
30
0.0
40
 .1666667 
999
TUBEHOLES
0
CIRCLE
8
TUBE_HOLES
10
-.625 
20
-9.160256 
30
0.0
40
 .25 
999
TUBEHOLES
0
CIRCLE
8
TUBE_HOLES
10
-1.25 
20
-9.160256 
30
0.0
40
 .25 
999
TUBEHOLES
0
CIRCLE
8
TUBE_HOLES
10
-1.875 
20
-9.160256 
30
0.0
40
 .25 
999
TUBEHOLES
0
CIRCLE
8
TUBE_HOLES
10
-2.5 
20
-9.160256 
30
0.0
40
 .25 
999
TUBEHOLES
0
CIRCLE
8
TUBE_HOLES
10
-.3125 
20
-1.041266 
30
0.0
40
 .25 
999
TUBEHOLES
0
CIRCLE
8
TUBE_HOLES
10
-.9375 
20
-1.041266 
30
0.0
40
 .25 
999
TUBEHOLES
0
CIRCLE
8
TUBE_HOLES
10
-1.5625 
20
-1.041266 
30
0.0
40
 .25 
999
TUBEHOLES
0
CIRCLE
8
TUBE_HOLES
10
-2.1875 
20
-1.041266 
30
0.0
40
 .25 
999
TUBEHOLES
0
CIRCLE
8
TUBE_HOLES
10
-2.8125 
20
-1.041266 
30
0.0
40
 .25 
999
TUBEHOLES
0
CIRCLE
8
TUBE_HOLES
10
-3.4375 
20
-1.041266 
30
0.0
40
 .25 
999
TUBEHOLES
0
CIRCLE
8
TUBE_HOLES
10
-4.0625 
20
-1.041266 
30
0.0
40
 .25 
999
TUBEHOLES
0
CIRCLE
8
TUBE_HOLES
10
-4.6875 
20
-1.041266 
30
0.0
40
 .25 
999
TUBEHOLES
0
CIRCLE
8
TUBE_HOLES
10
-5.3125 
20
-1.041266 
30
0.0
40
 .25 
999
TUBEHOLES
0
CIRCLE
8
TUBE_HOLES
10
-5.9375 
20
-1.041266 
30
0.0
40
 .25 
999
TUBEHOLES
0
CIRCLE
8
TUBE_HOLES
10
-6.5625 
20
-1.041266 
30
0.0
40
 .25 
999
TUBEHOLES
0
CIRCLE
8
TUBE_HOLES
10
-7.1875 
20
-1.041266 
30
0.0
40
 .25 
999
TUBEHOLES
0
CIRCLE
8
TUBE_HOLES
10
-7.8125 
20
-1.041266 
30
0.0
40
 .25 
999
TUBEHOLES
0
CIRCLE
8
TUBE_HOLES
10
-8.4375 
20
-1.041266 
30
0.0
40
 .25 
999
TUBEHOLES
0
CIRCLE
8
TUBE_HOLES
10
-9.0625 
20
-1.041266 
30
0.0
40
 .25 
999
TUBEHOLES
0
CIRCLE
8
TUBE_HOLES
10
-.3125 
20
-2.123798 
30
0.0
40
 .25 
999
TUBEHOLES
0
CIRCLE
8
TUBE_HOLES
10
-.9375 
20
-2.123798 
30
0.0
40
 .25 
999
TUBEHOLES
0
CIRCLE
8
TUBE_HOLES
10
-1.5625 
20
-2.123798 
30
0.0
40
 .25 
999
TUBEHOLES
0
CIRCLE
8
TUBE_HOLES
10
-2.1875 
20
-2.123798 
30
0.0
40
 .25 
999
TUBEHOLES
0
CIRCLE
8
TUBE_HOLES
10
-2.8125 
20
-2.123798 
30
0.0
40
 .25 
999
TUBEHOLES
0
CIRCLE
8
TUBE_HOLES
10
-3.4375 
20
-2.123798 
30
0.0
40
 .25 
999
TUBEHOLES
0
CIRCLE
8
TUBE_HOLES
10
-4.0625 
20
-2.123798 
30
0.0
40
 .25 
999
TUBEHOLES
0
CIRCLE
8
TUBE_HOLES
10
-4.6875 
20
-2.123798 
30
0.0
40
 .25 
999
TUBEHOLES
0
CIRCLE
8
TUBE_HOLES
10
-5.3125 
20
-2.123798 
30
0.0
40
 .25 
999
TUBEHOLES
0
CIRCLE
8
TUBE_HOLES
10
-5.9375 
20
-2.123798 
30
0.0
40
 .25 
999
TUBEHOLES
0
CIRCLE
8
TUBE_HOLES
10
-6.5625 
20
-2.123798 
30
0.0
40
 .25 
999
TUBEHOLES
0
CIRCLE
8
TUBE_HOLES
10
-7.1875 
20
-2.123798 
30
0.0
40
 .25 
999
TUBEHOLES
0
CIRCLE
8
TUBE_HOLES
10
-7.8125 
20
-2.123798 
30
0.0
40
 .25 
999
TUBEHOLES
0
CIRCLE
8
TUBE_HOLES
10
-8.4375 
20
-2.123798 
30
0.0
40
 .25 
999
TUBEHOLES
0
CIRCLE
8
TUBE_HOLES
10
-9.0625 
20
-2.123798 
30
0.0
40
 .25 
999
TUBEHOLES
0
CIRCLE
8
TUBE_HOLES
10
-.3125 
20
-3.206331 
30
0.0
40
 .25 
999
TUBEHOLES
0
CIRCLE
8
TUBE_HOLES
10
-.9375 
20
-3.206331 
30
0.0
40
 .25 
999
TUBEHOLES
0
CIRCLE
8
TUBE_HOLES
10
-1.5625 
20
-3.206331 
30
0.0
40
 .25 
999
TUBEHOLES
0
CIRCLE
8
TUBE_HOLES
10
-2.1875 
20
-3.206331 
30
0.0
40
 .25 
999
TUBEHOLES
0
CIRCLE
8
TUBE_HOLES
10
-2.8125 
20
-3.206331 
30
0.0
40
 .25 
999
TUBEHOLES
0
CIRCLE
8
TUBE_HOLES
10
-3.4375 
20
-3.206331 
30
0.0
40
 .25 
999
TUBEHOLES
0
CIRCLE
8
TUBE_HOLES
10
-4.0625 
20
-3.206331 
30
0.0
40
 .25 
999
TUBEHOLES
0
CIRCLE
8
TUBE_HOLES
10
-4.6875 
20
-3.206331 
30
0.0
40
 .25 
999
TUBEHOLES
0
CIRCLE
8
TUBE_HOLES
10
-5.3125 
20
-3.206331 
30
0.0
40
 .25 
999
TUBEHOLES
0
CIRCLE
8
TUBE_HOLES
10
-5.9375 
20
-3.206331 
30
0.0
40
 .25 
999
TUBEHOLES
0
CIRCLE
8
TUBE_HOLES
10
-6.5625 
20
-3.206331 
30
0.0
40
 .25 
999
TUBEHOLES
0
CIRCLE
8
TUBE_HOLES
10
-7.1875 
20
-3.206331 
30
0.0
40
 .25 
999
TUBEHOLES
0
CIRCLE
8
TUBE_HOLES
10
-7.8125 
20
-3.206331 
30
0.0
40
 .25 
999
TUBEHOLES
0
CIRCLE
8
TUBE_HOLES
10
-8.4375 
20
-3.206331 
30
0.0
40
 .25 
999
TUBEHOLES
0
CIRCLE
8
TUBE_HOLES
10
-9.0625 
20
-3.206331 
30
0.0
40
 .25 
999
TUBEHOLES
0
CIRCLE
8
TUBE_HOLES
10
-.3125 
20
-4.288863 
30
0.0
40
 .25 
999
TUBEHOLES
0
CIRCLE
8
TUBE_HOLES
10
-.9375 
20
-4.288863 
30
0.0
40
 .25 
999
TUBEHOLES
0
CIRCLE
8
TUBE_HOLES
10
-1.5625 
20
-4.288863 
30
0.0
40
 .25 
999
TUBEHOLES
0
CIRCLE
8
TUBE_HOLES
10
-2.1875 
20
-4.288863 
30
0.0
40
 .25 
999
TUBEHOLES
0
CIRCLE
8
TUBE_HOLES
10
-2.8125 
20
-4.288863 
30
0.0
40
 .25 
999
TUBEHOLES
0
CIRCLE
8
TUBE_HOLES
10
-3.4375 
20
-4.288863 
30
0.0
40
 .25 
999
TUBEHOLES
0
CIRCLE
8
TUBE_HOLES
10
-4.0625 
20
-4.288863 
30
0.0
40
 .25 
999
TUBEHOLES
0
CIRCLE
8
TUBE_HOLES
10
-4.6875 
20
-4.288863 
30
0.0
40
 .25 
999
TUBEHOLES
0
CIRCLE
8
TUBE_HOLES
10
-5.3125 
20
-4.288863 
30
0.0
40
 .25 
999
TUBEHOLES
0
CIRCLE
8
TUBE_HOLES
10
-5.9375 
20
-4.288863 
30
0.0
40
 .25 
999
TUBEHOLES
0
CIRCLE
8
TUBE_HOLES
10
-6.5625 
20
-4.288863 
30
0.0
40
 .25 
999
TUBEHOLES
0
CIRCLE
8
TUBE_HOLES
10
-7.1875 
20
-4.288863 
30
0.0
40
 .25 
999
TUBEHOLES
0
CIRCLE
8
TUBE_HOLES
10
-7.8125 
20
-4.288863 
30
0.0
40
 .25 
999
TUBEHOLES
0
CIRCLE
8
TUBE_HOLES
10
-8.4375 
20
-4.288863 
30
0.0
40
 .25 
999
TUBEHOLES
0
CIRCLE
8
TUBE_HOLES
10
-.3125 
20
-5.371395 
30
0.0
40
 .25 
999
TUBEHOLES
0
CIRCLE
8
TUBE_HOLES
10
-.9375 
20
-5.371395 
30
0.0
40
 .25 
999
TUBEHOLES
0
CIRCLE
8
TUBE_HOLES
10
-1.5625 
20
-5.371395 
30
0.0
40
 .25 
999
TUBEHOLES
0
CIRCLE
8
TUBE_HOLES
10
-2.1875 
20
-5.371395 
30
0.0
40
 .25 
999
TUBEHOLES
0
CIRCLE
8
TUBE_HOLES
10
-2.8125 
20
-5.371395 
30
0.0
40
 .25 
999
TUBEHOLES
0
CIRCLE
8
TUBE_HOLES
10
-3.4375 
20
-5.371395 
30
0.0
40
 .25 
999
TUBEHOLES
0
CIRCLE
8
TUBE_HOLES
10
-4.0625 
20
-5.371395 
30
0.0
40
 .25 
999
TUBEHOLES
0
CIRCLE
8
TUBE_HOLES
10
-4.6875 
20
-5.371395 
30
0.0
40
 .25 
999
TUBEHOLES
0
CIRCLE
8
TUBE_HOLES
10
-5.3125 
20
-5.371395 
30
0.0
40
 .25 
999
TUBEHOLES
0
CIRCLE
8
TUBE_HOLES
10
-5.9375 
20
-5.371395 
30
0.0
40
 .25 
999
TUBEHOLES
0
CIRCLE
8
TUBE_HOLES
10
-6.5625 
20
-5.371395 
30
0.0
40
 .25 
999
TUBEHOLES
0
CIRCLE
8
TUBE_HOLES
10
-7.1875 
20
-5.371395 
30
0.0
40
 .25 
999
TUBEHOLES
0
CIRCLE
8
TUBE_HOLES
10
-7.8125 
20
-5.371395 
30
0.0
40
 .25 
999
TUBEHOLES
0
CIRCLE
8
TUBE_HOLES
10
-.3125 
20
-6.453927 
30
0.0
40
 .25 
999
TUBEHOLES
0
CIRCLE
8
TUBE_HOLES
10
-.9375 
20
-6.453927 
30
0.0
40
 .25 
999
TUBEHOLES
0
CIRCLE
8
TUBE_HOLES
10
-1.5625 
20
-6.453927 
30
0.0
40
 .25 
999
TUBEHOLES
0
CIRCLE
8
TUBE_HOLES
10
-2.1875 
20
-6.453927 
30
0.0
40
 .25 
999
TUBEHOLES
0
CIRCLE
8
TUBE_HOLES
10
-2.8125 
20
-6.453927 
30
0.0
40
 .25 
999
TUBEHOLES
0
CIRCLE
8
TUBE_HOLES
10
-3.4375 
20
-6.453927 
30
0.0
40
 .25 
999
TUBEHOLES
0
CIRCLE
8
TUBE_HOLES
10
-4.0625 
20
-6.453927 
30
0.0
40
 .25 
999
TUBEHOLES
0
CIRCLE
8
TUBE_HOLES
10
-4.6875 
20
-6.453927 
30
0.0
40
 .25 
999
TUBEHOLES
0
CIRCLE
8
TUBE_HOLES
10
-5.3125 
20
-6.453927 
30
0.0
40
 .25 
999
TUBEHOLES
0
CIRCLE
8
TUBE_HOLES
10
-5.9375 
20
-6.453927 
30
0.0
40
 .25 
999
TUBEHOLES
0
CIRCLE
8
TUBE_HOLES
10
-6.5625 
20
-6.453927 
30
0.0
40
 .25 
999
TUBEHOLES
0
CIRCLE
8
TUBE_HOLES
10
-.3125 
20
-7.536459 
30
0.0
40
 .25 
999
TUBEHOLES
0
CIRCLE
8
TUBE_HOLES
10
-.9375 
20
-7.536459 
30
0.0
40
 .25 
999
TUBEHOLES
0
CIRCLE
8
TUBE_HOLES
10
-1.5625 
20
-7.536459 
30
0.0
40
 .25 
999
TUBEHOLES
0
CIRCLE
8
TUBE_HOLES
10
-2.1875 
20
-7.536459 
30
0.0
40
 .25 
999
TUBEHOLES
0
CIRCLE
8
TUBE_HOLES
10
-2.8125 
20
-7.536459 
30
0.0
40
 .25 
999
TUBEHOLES
0
CIRCLE
8
TUBE_HOLES
10
-3.4375 
20
-7.536459 
30
0.0
40
 .25 
999
TUBEHOLES
0
CIRCLE
8
TUBE_HOLES
10
-4.0625 
20
-7.536459 
30
0.0
40
 .25 
999
TUBEHOLES
0
CIRCLE
8
TUBE_HOLES
10
-4.6875 
20
-7.536459 
30
0.0
40
 .25 
999
TUBEHOLES
0
CIRCLE
8
TUBE_HOLES
10
-5.3125 
20
-7.536459 
30
0.0
40
 .25 
999
TUBEHOLES
0
CIRCLE
8
TUBE_HOLES
10
-5.9375 
20
-7.536459 
30
0.0
40
 .25 
999
TUBEHOLES
0
CIRCLE
8
TUBE_HOLES
10
-.3125 
20
-8.618991 
30
0.0
40
 .25 
999
TUBEHOLES
0
CIRCLE
8
TUBE_HOLES
10
-.9375 
20
-8.618991 
30
0.0
40
 .25 
999
TUBEHOLES
0
CIRCLE
8
TUBE_HOLES
10
-1.5625 
20
-8.618991 
30
0.0
40
 .25 
999
TUBEHOLES
0
CIRCLE
8
TUBE_HOLES
10
-2.1875 
20
-8.618991 
30
0.0
40
 .25 
999
TUBEHOLES
0
CIRCLE
8
TUBE_HOLES
10
-2.8125 
20
-8.618991 
30
0.0
40
 .25 
999
TUBEHOLES
0
CIRCLE
8
TUBE_HOLES
10
-3.4375 
20
-8.618991 
30
0.0
40
 .25 
999
TUBEHOLES
0
CIRCLE
8
TUBE_HOLES
10
-4.0625 
20
-8.618991 
30
0.0
40
 .25 
999
TUBEHOLES
0
CIRCLE
8
TUBE_HOLES
10
 .625 
20
-.5 
30
0.0
40
 .25 
999
TUBEHOLES
0
CIRCLE
8
TUBE_HOLES
10
 1.25 
20
-.5 
30
0.0
40
 .25 
999
TUBEHOLES
0
CIRCLE
8
TUBE_HOLES
10
 1.875 
20
-.5 
30
0.0
40
 .25 
999
TUBEHOLES
0
CIRCLE
8
TUBE_HOLES
10
 2.5 
20
-.5 
30
0.0
40
 .25 
999
TUBEHOLES
0
CIRCLE
8
TUBE_HOLES
10
 3.125 
20
-.5 
30
0.0
40
 .25 
999
TUBEHOLES
0
CIRCLE
8
TUBE_HOLES
10
 3.75 
20
-.5 
30
0.0
40
 .25 
999
TUBEHOLES
0
CIRCLE
8
TUBE_HOLES
10
 4.375 
20
-.5 
30
0.0
40
 .25 
999
TUBEHOLES
0
CIRCLE
8
TUBE_HOLES
10
 5 
20
-.5 
30
0.0
40
 .25 
999
TUBEHOLES
0
CIRCLE
8
TUBE_HOLES
10
 5.625 
20
-.5 
30
0.0
40
 .25 
999
TUBEHOLES
0
CIRCLE
8
TUBE_HOLES
10
 6.25 
20
-.5 
30
0.0
40
 .25 
999
TUBEHOLES
0
CIRCLE
8
TUBE_HOLES
10
 6.875 
20
-.5 
30
0.0
40
 .25 
999
TUBEHOLES
0
CIRCLE
8
TUBE_HOLES
10
 7.5 
20
-.5 
30
0.0
40
 .25 
999
TUBEHOLES
0
CIRCLE
8
TUBE_HOLES
10
 8.125 
20
-.5 
30
0.0
40
 .25 
999
TUBEHOLES
0
CIRCLE
8
TUBE_HOLES
10
 8.75 
20
-.5 
30
0.0
40
 .25 
999
TUBEHOLES
0
CIRCLE
8
TUBE_HOLES
10
 9.375 
20
-.5 
30
0.0
40
 .25 
999
TUBEHOLES
0
CIRCLE
8
TUBE_HOLES
10
 .625 
20
-1.582532 
30
0.0
40
 .25 
999
TUBEHOLES
0
CIRCLE
8
TUBE_HOLES
10
 1.25 
20
-1.582532 
30
0.0
40
 .25 
999
TUBEHOLES
0
CIRCLE
8
TUBE_HOLES
10
 1.875 
20
-1.582532 
30
0.0
40
 .25 
999
TUBEHOLES
0
CIRCLE
8
TUBE_HOLES
10
 2.5 
20
-1.582532 
30
0.0
40
 .25 
999
TUBEHOLES
0
CIRCLE
8
TUBE_HOLES
10
 3.125 
20
-1.582532 
30
0.0
40
 .25 
999
TUBEHOLES
0
CIRCLE
8
TUBE_HOLES
10
 3.75 
20
-1.582532 
30
0.0
40
 .25 
999
TUBEHOLES
0
CIRCLE
8
TUBE_HOLES
10
 4.375 
20
-1.582532 
30
0.0
40
 .25 
999
TUBEHOLES
0
CIRCLE
8
TUBE_HOLES
10
 5 
20
-1.582532 
30
0.0
40
 .25 
999
TUBEHOLES
0
CIRCLE
8
TUBE_HOLES
10
 5.625 
20
-1.582532 
30
0.0
40
 .25 
999
TUBEHOLES
0
CIRCLE
8
TUBE_HOLES
10
 6.25 
20
-1.582532 
30
0.0
40
 .25 
999
TUBEHOLES
0
CIRCLE
8
TUBE_HOLES
10
 6.875 
20
-1.582532 
30
0.0
40
 .25 
999
TUBEHOLES
0
CIRCLE
8
TUBE_HOLES
10
 7.5 
20
-1.582532 
30
0.0
40
 .25 
999
TUBEHOLES
0
CIRCLE
8
TUBE_HOLES
10
 8.125 
20
-1.582532 
30
0.0
40
 .25 
999
TUBEHOLES
0
CIRCLE
8
TUBE_HOLES
10
 8.75 
20
-1.582532 
30
0.0
40
 .25 
999
TUBEHOLES
0
CIRCLE
8
TUBE_HOLES
10
 9.375 
20
-1.582532 
30
0.0
40
 .25 
999
TUBEHOLES
0
CIRCLE
8
TUBE_HOLES
10
 .625 
20
-2.665064 
30
0.0
40
 .25 
999
TUBEHOLES
0
CIRCLE
8
TUBE_HOLES
10
 1.25 
20
-2.665064 
30
0.0
40
 .25 
999
TUBEHOLES
0
CIRCLE
8
TUBE_HOLES
10
 1.875 
20
-2.665064 
30
0.0
40
 .25 
999
TUBEHOLES
0
CIRCLE
8
TUBE_HOLES
10
 2.5 
20
-2.665064 
30
0.0
40
 .25 
999
TUBEHOLES
0
CIRCLE
8
TUBE_HOLES
10
 3.125 
20
-2.665064 
30
0.0
40
 .25 
999
TUBEHOLES
0
CIRCLE
8
TUBE_HOLES
10
 3.75 
20
-2.665064 
30
0.0
40
 .25 
999
TUBEHOLES
0
CIRCLE
8
TUBE_HOLES
10
 4.375 
20
-2.665064 
30
0.0
40
 .25 
999
TUBEHOLES
0
CIRCLE
8
TUBE_HOLES
10
 5 
20
-2.665064 
30
0.0
40
 .25 
999
TUBEHOLES
0
CIRCLE
8
TUBE_HOLES
10
 5.625 
20
-2.665064 
30
0.0
40
 .25 
999
TUBEHOLES
0
CIRCLE
8
TUBE_HOLES
10
 6.25 
20
-2.665064 
30
0.0
40
 .25 
999
TUBEHOLES
0
CIRCLE
8
TUBE_HOLES
10
 6.875 
20
-2.665064 
30
0.0
40
 .25 
999
TUBEHOLES
0
CIRCLE
8
TUBE_HOLES
10
 7.5 
20
-2.665064 
30
0.0
40
 .25 
999
TUBEHOLES
0
CIRCLE
8
TUBE_HOLES
10
 8.125 
20
-2.665064 
30
0.0
40
 .25 
999
TUBEHOLES
0
CIRCLE
8
TUBE_HOLES
10
 8.75 
20
-2.665064 
30
0.0
40
 .25 
999
TUBEHOLES
0
CIRCLE
8
TUBE_HOLES
10
 .625 
20
-3.747597 
30
0.0
40
 .25 
999
TUBEHOLES
0
CIRCLE
8
TUBE_HOLES
10
 1.25 
20
-3.747597 
30
0.0
40
 .25 
999
TUBEHOLES
0
CIRCLE
8
TUBE_HOLES
10
 1.875 
20
-3.747597 
30
0.0
40
 .25 
999
TUBEHOLES
0
CIRCLE
8
TUBE_HOLES
10
 2.5 
20
-3.747597 
30
0.0
40
 .25 
999
TUBEHOLES
0
CIRCLE
8
TUBE_HOLES
10
 3.125 
20
-3.747597 
30
0.0
40
 .25 
999
TUBEHOLES
0
CIRCLE
8
TUBE_HOLES
10
 3.75 
20
-3.747597 
30
0.0
40
 .25 
999
TUBEHOLES
0
CIRCLE
8
TUBE_HOLES
10
 4.375 
20
-3.747597 
30
0.0
40
 .25 
999
TUBEHOLES
0
CIRCLE
8
TUBE_HOLES
10
 5 
20
-3.747597 
30
0.0
40
 .25 
999
TUBEHOLES
0
CIRCLE
8
TUBE_HOLES
10
 5.625 
20
-3.747597 
30
0.0
40
 .25 
999
TUBEHOLES
0
CIRCLE
8
TUBE_HOLES
10
 6.25 
20
-3.747597 
30
0.0
40
 .25 
999
TUBEHOLES
0
CIRCLE
8
TUBE_HOLES
10
 6.875 
20
-3.747597 
30
0.0
40
 .25 
999
TUBEHOLES
0
CIRCLE
8
TUBE_HOLES
10
 7.5 
20
-3.747597 
30
0.0
40
 .25 
999
TUBEHOLES
0
CIRCLE
8
TUBE_HOLES
10
 8.125 
20
-3.747597 
30
0.0
40
 .25 
999
TUBEHOLES
0
CIRCLE
8
TUBE_HOLES
10
 8.75 
20
-3.747597 
30
0.0
40
 .25 
999
TUBEHOLES
0
CIRCLE
8
TUBE_HOLES
10
 .625 
20
-4.830129 
30
0.0
40
 .25 
999
TUBEHOLES
0
CIRCLE
8
TUBE_HOLES
10
 1.25 
20
-4.830129 
30
0.0
40
 .25 
999
TUBEHOLES
0
CIRCLE
8
TUBE_HOLES
10
 1.875 
20
-4.830129 
30
0.0
40
 .25 
999
TUBEHOLES
0
CIRCLE
8
TUBE_HOLES
10
 2.5 
20
-4.830129 
30
0.0
40
 .25 
999
TUBEHOLES
0
CIRCLE
8
TUBE_HOLES
10
 3.125 
20
-4.830129 
30
0.0
40
 .25 
999
TUBEHOLES
0
CIRCLE
8
TUBE_HOLES
10
 3.75 
20
-4.830129 
30
0.0
40
 .25 
999
TUBEHOLES
0
CIRCLE
8
TUBE_HOLES
10
 4.375 
20
-4.830129 
30
0.0
40
 .25 
999
TUBEHOLES
0
CIRCLE
8
TUBE_HOLES
10
 5 
20
-4.830129 
30
0.0
40
 .25 
999
TUBEHOLES
0
CIRCLE
8
TUBE_HOLES
10
 5.625 
20
-4.830129 
30
0.0
40
 .25 
999
TUBEHOLES
0
CIRCLE
8
TUBE_HOLES
10
 6.25 
20
-4.830129 
30
0.0
40
 .25 
999
TUBEHOLES
0
CIRCLE
8
TUBE_HOLES
10
 6.875 
20
-4.830129 
30
0.0
40
 .25 
999
TUBEHOLES
0
CIRCLE
8
TUBE_HOLES
10
 7.5 
20
-4.830129 
30
0.0
40
 .25 
999
TUBEHOLES
0
CIRCLE
8
TUBE_HOLES
10
 8.125 
20
-4.830129 
30
0.0
40
 .25 
999
TUBEHOLES
0
CIRCLE
8
TUBE_HOLES
10
 .625 
20
-5.912661 
30
0.0
40
 .25 
999
TUBEHOLES
0
CIRCLE
8
TUBE_HOLES
10
 1.25 
20
-5.912661 
30
0.0
40
 .25 
999
TUBEHOLES
0
CIRCLE
8
TUBE_HOLES
10
 1.875 
20
-5.912661 
30
0.0
40
 .25 
999
TUBEHOLES
0
CIRCLE
8
TUBE_HOLES
10
 2.5 
20
-5.912661 
30
0.0
40
 .25 
999
TUBEHOLES
0
CIRCLE
8
TUBE_HOLES
10
 3.125 
20
-5.912661 
30
0.0
40
 .25 
999
TUBEHOLES
0
CIRCLE
8
TUBE_HOLES
10
 3.75 
20
-5.912661 
30
0.0
40
 .25 
999
TUBEHOLES
0
CIRCLE
8
TUBE_HOLES
10
 4.375 
20
-5.912661 
30
0.0
40
 .25 
999
TUBEHOLES
0
CIRCLE
8
TUBE_HOLES
10
 5 
20
-5.912661 
30
0.0
40
 .25 
999
TUBEHOLES
0
CIRCLE
8
TUBE_HOLES
10
 5.625 
20
-5.912661 
30
0.0
40
 .25 
999
TUBEHOLES
0
CIRCLE
8
TUBE_HOLES
10
 6.25 
20
-5.912661 
30
0.0
40
 .25 
999
TUBEHOLES
0
CIRCLE
8
TUBE_HOLES
10
 6.875 
20
-5.912661 
30
0.0
40
 .25 
999
TUBEHOLES
0
CIRCLE
8
TUBE_HOLES
10
 7.5 
20
-5.912661 
30
0.0
40
 .25 
999
TUBEHOLES
0
CIRCLE
8
TUBE_HOLES
10
 .625 
20
-6.995193 
30
0.0
40
 .25 
999
TUBEHOLES
0
CIRCLE
8
TUBE_HOLES
10
 1.25 
20
-6.995193 
30
0.0
40
 .25 
999
TUBEHOLES
0
CIRCLE
8
TUBE_HOLES
10
 1.875 
20
-6.995193 
30
0.0
40
 .25 
999
TUBEHOLES
0
CIRCLE
8
TUBE_HOLES
10
 2.5 
20
-6.995193 
30
0.0
40
 .25 
999
TUBEHOLES
0
CIRCLE
8
TUBE_HOLES
10
 3.125 
20
-6.995193 
30
0.0
40
 .25 
999
TUBEHOLES
0
CIRCLE
8
TUBE_HOLES
10
 3.75 
20
-6.995193 
30
0.0
40
 .25 
999
TUBEHOLES
0
CIRCLE
8
TUBE_HOLES
10
 4.375 
20
-6.995193 
30
0.0
40
 .25 
999
TUBEHOLES
0
CIRCLE
8
TUBE_HOLES
10
 5 
20
-6.995193 
30
0.0
40
 .25 
999
TUBEHOLES
0
CIRCLE
8
TUBE_HOLES
10
 5.625 
20
-6.995193 
30
0.0
40
 .25 
999
TUBEHOLES
0
CIRCLE
8
TUBE_HOLES
10
 6.25 
20
-6.995193 
30
0.0
40
 .25 
999
TUBEHOLES
0
CIRCLE
8
TUBE_HOLES
10
 .625 
20
-8.077724 
30
0.0
40
 .25 
999
TUBEHOLES
0
CIRCLE
8
TUBE_HOLES
10
 1.25 
20
-8.077724 
30
0.0
40
 .25 
999
TUBEHOLES
0
CIRCLE
8
TUBE_HOLES
10
 1.875 
20
-8.077724 
30
0.0
40
 .25 
999
TUBEHOLES
0
CIRCLE
8
TUBE_HOLES
10
 2.5 
20
-8.077724 
30
0.0
40
 .25 
999
TUBEHOLES
0
CIRCLE
8
TUBE_HOLES
10
 3.125 
20
-8.077724 
30
0.0
40
 .25 
999
TUBEHOLES
0
CIRCLE
8
TUBE_HOLES
10
 3.75 
20
-8.077724 
30
0.0
40
 .25 
999
TUBEHOLES
0
CIRCLE
8
TUBE_HOLES
10
 4.375 
20
-8.077724 
30
0.0
40
 .25 
999
TUBEHOLES
0
CIRCLE
8
TIE_RODS
10
 5 
20
-8.077724 
30
0.0
40
 .125 
0
CIRCLE
8
TIE_RODS
10
 5 
20
-8.077724 
30
0.0
40
 .1666667 
999
TUBEHOLES
0
CIRCLE
8
TUBE_HOLES
10
 .625 
20
-9.160256 
30
0.0
40
 .25 
999
TUBEHOLES
0
CIRCLE
8
TUBE_HOLES
10
 1.25 
20
-9.160256 
30
0.0
40
 .25 
999
TUBEHOLES
0
CIRCLE
8
TUBE_HOLES
10
 1.875 
20
-9.160256 
30
0.0
40
 .25 
999
TUBEHOLES
0
CIRCLE
8
TUBE_HOLES
10
 2.5 
20
-9.160256 
30
0.0
40
 .25 
999
TUBEHOLES
0
CIRCLE
8
TUBE_HOLES
10
 .3125 
20
-1.041266 
30
0.0
40
 .25 
999
TUBEHOLES
0
CIRCLE
8
TUBE_HOLES
10
 .9375 
20
-1.041266 
30
0.0
40
 .25 
999
TUBEHOLES
0
CIRCLE
8
TUBE_HOLES
10
 1.5625 
20
-1.041266 
30
0.0
40
 .25 
999
TUBEHOLES
0
CIRCLE
8
TUBE_HOLES
10
 2.1875 
20
-1.041266 
30
0.0
40
 .25 
999
TUBEHOLES
0
CIRCLE
8
TUBE_HOLES
10
 2.8125 
20
-1.041266 
30
0.0
40
 .25 
999
TUBEHOLES
0
CIRCLE
8
TUBE_HOLES
10
 3.4375 
20
-1.041266 
30
0.0
40
 .25 
999
TUBEHOLES
0
CIRCLE
8
TUBE_HOLES
10
 4.0625 
20
-1.041266 
30
0.0
40
 .25 
999
TUBEHOLES
0
CIRCLE
8
TUBE_HOLES
10
 4.6875 
20
-1.041266 
30
0.0
40
 .25 
999
TUBEHOLES
0
CIRCLE
8
TUBE_HOLES
10
 5.3125 
20
-1.041266 
30
0.0
40
 .25 
999
TUBEHOLES
0
CIRCLE
8
TUBE_HOLES
10
 5.9375 
20
-1.041266 
30
0.0
40
 .25 
999
TUBEHOLES
0
CIRCLE
8
TUBE_HOLES
10
 6.5625 
20
-1.041266 
30
0.0
40
 .25 
999
TUBEHOLES
0
CIRCLE
8
TUBE_HOLES
10
 7.1875 
20
-1.041266 
30
0.0
40
 .25 
999
TUBEHOLES
0
CIRCLE
8
TUBE_HOLES
10
 7.8125 
20
-1.041266 
30
0.0
40
 .25 
999
TUBEHOLES
0
CIRCLE
8
TUBE_HOLES
10
 8.4375 
20
-1.041266 
30
0.0
40
 .25 
999
TUBEHOLES
0
CIRCLE
8
TUBE_HOLES
10
 9.0625 
20
-1.041266 
30
0.0
40
 .25 
999
TUBEHOLES
0
CIRCLE
8
TUBE_HOLES
10
 .3125 
20
-2.123798 
30
0.0
40
 .25 
999
TUBEHOLES
0
CIRCLE
8
TUBE_HOLES
10
 .9375 
20
-2.123798 
30
0.0
40
 .25 
999
TUBEHOLES
0
CIRCLE
8
TUBE_HOLES
10
 1.5625 
20
-2.123798 
30
0.0
40
 .25 
999
TUBEHOLES
0
CIRCLE
8
TUBE_HOLES
10
 2.1875 
20
-2.123798 
30
0.0
40
 .25 
999
TUBEHOLES
0
CIRCLE
8
TUBE_HOLES
10
 2.8125 
20
-2.123798 
30
0.0
40
 .25 
999
TUBEHOLES
0
CIRCLE
8
TUBE_HOLES
10
 3.4375 
20
-2.123798 
30
0.0
40
 .25 
999
TUBEHOLES
0
CIRCLE
8
TUBE_HOLES
10
 4.0625 
20
-2.123798 
30
0.0
40
 .25 
999
TUBEHOLES
0
CIRCLE
8
TUBE_HOLES
10
 4.6875 
20
-2.123798 
30
0.0
40
 .25 
999
TUBEHOLES
0
CIRCLE
8
TUBE_HOLES
10
 5.3125 
20
-2.123798 
30
0.0
40
 .25 
999
TUBEHOLES
0
CIRCLE
8
TUBE_HOLES
10
 5.9375 
20
-2.123798 
30
0.0
40
 .25 
999
TUBEHOLES
0
CIRCLE
8
TUBE_HOLES
10
 6.5625 
20
-2.123798 
30
0.0
40
 .25 
999
TUBEHOLES
0
CIRCLE
8
TUBE_HOLES
10
 7.1875 
20
-2.123798 
30
0.0
40
 .25 
999
TUBEHOLES
0
CIRCLE
8
TUBE_HOLES
10
 7.8125 
20
-2.123798 
30
0.0
40
 .25 
999
TUBEHOLES
0
CIRCLE
8
TUBE_HOLES
10
 8.4375 
20
-2.123798 
30
0.0
40
 .25 
999
TUBEHOLES
0
CIRCLE
8
TUBE_HOLES
10
 9.0625 
20
-2.123798 
30
0.0
40
 .25 
999
TUBEHOLES
0
CIRCLE
8
TUBE_HOLES
10
 .3125 
20
-3.206331 
30
0.0
40
 .25 
999
TUBEHOLES
0
CIRCLE
8
TUBE_HOLES
10
 .9375 
20
-3.206331 
30
0.0
40
 .25 
999
TUBEHOLES
0
CIRCLE
8
TUBE_HOLES
10
 1.5625 
20
-3.206331 
30
0.0
40
 .25 
999
TUBEHOLES
0
CIRCLE
8
TUBE_HOLES
10
 2.1875 
20
-3.206331 
30
0.0
40
 .25 
999
TUBEHOLES
0
CIRCLE
8
TUBE_HOLES
10
 2.8125 
20
-3.206331 
30
0.0
40
 .25 
999
TUBEHOLES
0
CIRCLE
8
TUBE_HOLES
10
 3.4375 
20
-3.206331 
30
0.0
40
 .25 
999
TUBEHOLES
0
CIRCLE
8
TUBE_HOLES
10
 4.0625 
20
-3.206331 
30
0.0
40
 .25 
999
TUBEHOLES
0
CIRCLE
8
TUBE_HOLES
10
 4.6875 
20
-3.206331 
30
0.0
40
 .25 
999
TUBEHOLES
0
CIRCLE
8
TUBE_HOLES
10
 5.3125 
20
-3.206331 
30
0.0
40
 .25 
999
TUBEHOLES
0
CIRCLE
8
TUBE_HOLES
10
 5.9375 
20
-3.206331 
30
0.0
40
 .25 
999
TUBEHOLES
0
CIRCLE
8
TUBE_HOLES
10
 6.5625 
20
-3.206331 
30
0.0
40
 .25 
999
TUBEHOLES
0
CIRCLE
8
TUBE_HOLES
10
 7.1875 
20
-3.206331 
30
0.0
40
 .25 
999
TUBEHOLES
0
CIRCLE
8
TUBE_HOLES
10
 7.8125 
20
-3.206331 
30
0.0
40
 .25 
999
TUBEHOLES
0
CIRCLE
8
TUBE_HOLES
10
 8.4375 
20
-3.206331 
30
0.0
40
 .25 
999
TUBEHOLES
0
CIRCLE
8
TUBE_HOLES
10
 9.0625 
20
-3.206331 
30
0.0
40
 .25 
999
TUBEHOLES
0
CIRCLE
8
TUBE_HOLES
10
 .3125 
20
-4.288863 
30
0.0
40
 .25 
999
TUBEHOLES
0
CIRCLE
8
TUBE_HOLES
10
 .9375 
20
-4.288863 
30
0.0
40
 .25 
999
TUBEHOLES
0
CIRCLE
8
TUBE_HOLES
10
 1.5625 
20
-4.288863 
30
0.0
40
 .25 
999
TUBEHOLES
0
CIRCLE
8
TUBE_HOLES
10
 2.1875 
20
-4.288863 
30
0.0
40
 .25 
999
TUBEHOLES
0
CIRCLE
8
TUBE_HOLES
10
 2.8125 
20
-4.288863 
30
0.0
40
 .25 
999
TUBEHOLES
0
CIRCLE
8
TUBE_HOLES
10
 3.4375 
20
-4.288863 
30
0.0
40
 .25 
999
TUBEHOLES
0
CIRCLE
8
TUBE_HOLES
10
 4.0625 
20
-4.288863 
30
0.0
40
 .25 
999
TUBEHOLES
0
CIRCLE
8
TUBE_HOLES
10
 4.6875 
20
-4.288863 
30
0.0
40
 .25 
999
TUBEHOLES
0
CIRCLE
8
TUBE_HOLES
10
 5.3125 
20
-4.288863 
30
0.0
40
 .25 
999
TUBEHOLES
0
CIRCLE
8
TUBE_HOLES
10
 5.9375 
20
-4.288863 
30
0.0
40
 .25 
999
TUBEHOLES
0
CIRCLE
8
TUBE_HOLES
10
 6.5625 
20
-4.288863 
30
0.0
40
 .25 
999
TUBEHOLES
0
CIRCLE
8
TUBE_HOLES
10
 7.1875 
20
-4.288863 
30
0.0
40
 .25 
999
TUBEHOLES
0
CIRCLE
8
TUBE_HOLES
10
 7.8125 
20
-4.288863 
30
0.0
40
 .25 
999
TUBEHOLES
0
CIRCLE
8
TUBE_HOLES
10
 8.4375 
20
-4.288863 
30
0.0
40
 .25 
999
TUBEHOLES
0
CIRCLE
8
TUBE_HOLES
10
 .3125 
20
-5.371395 
30
0.0
40
 .25 
999
TUBEHOLES
0
CIRCLE
8
TUBE_HOLES
10
 .9375 
20
-5.371395 
30
0.0
40
 .25 
999
TUBEHOLES
0
CIRCLE
8
TUBE_HOLES
10
 1.5625 
20
-5.371395 
30
0.0
40
 .25 
999
TUBEHOLES
0
CIRCLE
8
TUBE_HOLES
10
 2.1875 
20
-5.371395 
30
0.0
40
 .25 
999
TUBEHOLES
0
CIRCLE
8
TUBE_HOLES
10
 2.8125 
20
-5.371395 
30
0.0
40
 .25 
999
TUBEHOLES
0
CIRCLE
8
TUBE_HOLES
10
 3.4375 
20
-5.371395 
30
0.0
40
 .25 
999
TUBEHOLES
0
CIRCLE
8
TUBE_HOLES
10
 4.0625 
20
-5.371395 
30
0.0
40
 .25 
999
TUBEHOLES
0
CIRCLE
8
TUBE_HOLES
10
 4.6875 
20
-5.371395 
30
0.0
40
 .25 
999
TUBEHOLES
0
CIRCLE
8
TUBE_HOLES
10
 5.3125 
20
-5.371395 
30
0.0
40
 .25 
999
TUBEHOLES
0
CIRCLE
8
TUBE_HOLES
10
 5.9375 
20
-5.371395 
30
0.0
40
 .25 
999
TUBEHOLES
0
CIRCLE
8
TUBE_HOLES
10
 6.5625 
20
-5.371395 
30
0.0
40
 .25 
999
TUBEHOLES
0
CIRCLE
8
TUBE_HOLES
10
 7.1875 
20
-5.371395 
30
0.0
40
 .25 
999
TUBEHOLES
0
CIRCLE
8
TUBE_HOLES
10
 7.8125 
20
-5.371395 
30
0.0
40
 .25 
999
TUBEHOLES
0
CIRCLE
8
TUBE_HOLES
10
 .3125 
20
-6.453927 
30
0.0
40
 .25 
999
TUBEHOLES
0
CIRCLE
8
TUBE_HOLES
10
 .9375 
20
-6.453927 
30
0.0
40
 .25 
999
TUBEHOLES
0
CIRCLE
8
TUBE_HOLES
10
 1.5625 
20
-6.453927 
30
0.0
40
 .25 
999
TUBEHOLES
0
CIRCLE
8
TUBE_HOLES
10
 2.1875 
20
-6.453927 
30
0.0
40
 .25 
999
TUBEHOLES
0
CIRCLE
8
TUBE_HOLES
10
 2.8125 
20
-6.453927 
30
0.0
40
 .25 
999
TUBEHOLES
0
CIRCLE
8
TUBE_HOLES
10
 3.4375 
20
-6.453927 
30
0.0
40
 .25 
999
TUBEHOLES
0
CIRCLE
8
TUBE_HOLES
10
 4.0625 
20
-6.453927 
30
0.0
40
 .25 
999
TUBEHOLES
0
CIRCLE
8
TUBE_HOLES
10
 4.6875 
20
-6.453927 
30
0.0
40
 .25 
999
TUBEHOLES
0
CIRCLE
8
TUBE_HOLES
10
 5.3125 
20
-6.453927 
30
0.0
40
 .25 
999
TUBEHOLES
0
CIRCLE
8
TUBE_HOLES
10
 5.9375 
20
-6.453927 
30
0.0
40
 .25 
999
TUBEHOLES
0
CIRCLE
8
TUBE_HOLES
10
 6.5625 
20
-6.453927 
30
0.0
40
 .25 
999
TUBEHOLES
0
CIRCLE
8
TUBE_HOLES
10
 .3125 
20
-7.536459 
30
0.0
40
 .25 
999
TUBEHOLES
0
CIRCLE
8
TUBE_HOLES
10
 .9375 
20
-7.536459 
30
0.0
40
 .25 
999
TUBEHOLES
0
CIRCLE
8
TUBE_HOLES
10
 1.5625 
20
-7.536459 
30
0.0
40
 .25 
999
TUBEHOLES
0
CIRCLE
8
TUBE_HOLES
10
 2.1875 
20
-7.536459 
30
0.0
40
 .25 
999
TUBEHOLES
0
CIRCLE
8
TUBE_HOLES
10
 2.8125 
20
-7.536459 
30
0.0
40
 .25 
999
TUBEHOLES
0
CIRCLE
8
TUBE_HOLES
10
 3.4375 
20
-7.536459 
30
0.0
40
 .25 
999
TUBEHOLES
0
CIRCLE
8
TUBE_HOLES
10
 4.0625 
20
-7.536459 
30
0.0
40
 .25 
999
TUBEHOLES
0
CIRCLE
8
TUBE_HOLES
10
 4.6875 
20
-7.536459 
30
0.0
40
 .25 
999
TUBEHOLES
0
CIRCLE
8
TUBE_HOLES
10
 5.3125 
20
-7.536459 
30
0.0
40
 .25 
999
TUBEHOLES
0
CIRCLE
8
TUBE_HOLES
10
 5.9375 
20
-7.536459 
30
0.0
40
 .25 
999
TUBEHOLES
0
CIRCLE
8
TUBE_HOLES
10
 .3125 
20
-8.618991 
30
0.0
40
 .25 
999
TUBEHOLES
0
CIRCLE
8
TUBE_HOLES
10
 .9375 
20
-8.618991 
30
0.0
40
 .25 
999
TUBEHOLES
0
CIRCLE
8
TUBE_HOLES
10
 1.5625 
20
-8.618991 
30
0.0
40
 .25 
999
TUBEHOLES
0
CIRCLE
8
TUBE_HOLES
10
 2.1875 
20
-8.618991 
30
0.0
40
 .25 
999
TUBEHOLES
0
CIRCLE
8
TUBE_HOLES
10
 2.8125 
20
-8.618991 
30
0.0
40
 .25 
999
TUBEHOLES
0
CIRCLE
8
TUBE_HOLES
10
 3.4375 
20
-8.618991 
30
0.0
40
 .25 
999
TUBEHOLES
0
CIRCLE
8
TUBE_HOLES
10
 4.0625 
20
-8.618991 
30
0.0
40
 .25 
0
ENDSEC
  0
EOF
