  0
SECTION
  2
HEADER
  9
$ACADVER
  1
AC1009
  9
$INSBASE
 10
0.0
 20
0.0
 30
0.0
  9
$EXTMIN
 10
0.700294
 20
0.09
 30
0.0
  9
$EXTMAX
 10
7.979706
 20
9.795882
 30
0.0
  9
$LIMMIN
 10
0.0
 20
0.0
  9
$LIMMAX
 10
8.0
 20
10.0
  9
$ORTHOMODE
 70
     1
  9
$REGENMODE
 70
     0
  9
$FILLMODE
 70
     1
  9
$QTEXTMODE
 70
     0
  9
$MIRRTEXT
 70
     0
  9
$DRAGMODE
 70
     2
  9
$LTSCALE
 40
0.5
  9
$OSMODE
 70
     0
  9
$ATTMODE
 70
     1
  9
$TEXTSIZE
 40
0.125
  9
$TRACEWID
 40
0.12
  9
$TEXTSTYLE
  7
ROMANS
  9
$CLAYER
  8
0
  9
$CELTYPE
  6
BYLAYER
  9
$CECOLOR
 62
   256
  9
$DIMSCALE
 40
1.0
  9
$DIMASZ
 40
0.18
  9
$DIMEXO
 40
0.06
  9
$DIMDLI
 40
0.38
  9
$DIMRND
 40
0.0
  9
$DIMDLE
 40
0.0
  9
$DIMEXE
 40
0.12
  9
$DIMTP
 40
0.0
  9
$DIMTM
 40
0.0
  9
$DIMTXT
 40
0.12
  9
$DIMCEN
 40
0.06
  9
$DIMTSZ
 40
0.0
  9
$DIMTOL
 70
     0
  9
$DIMLIM
 70
     0
  9
$DIMTIH
 70
     1
  9
$DIMTOH
 70
     1
  9
$DIMSE1
 70
     0
  9
$DIMSE2
 70
     0
  9
$DIMTAD
 70
     0
  9
$DIMZIN
 70
     4
  9
$DIMBLK
  1

  9
$DIMASO
 70
     1
  9
$DIMSHO
 70
     0
  9
$DIMPOST
  1

  9
$DIMAPOST
  1

  9
$DIMALT
 70
     0
  9
$DIMALTD
 70
     2
  9
$DIMALTF
 40
25.4
  9
$DIMLFAC
 40
1.0
  9
$DIMTOFL
 70
     0
  9
$DIMTVP
 40
0.0
  9
$DIMTIX
 70
     0
  9
$DIMSOXD
 70
     0
  9
$DIMSAH
 70
     0
  9
$DIMBLK1
  1

  9
$DIMBLK2
  1

  9
$DIMSTYLE
  2
*UNNAMED
  9
$DIMCLRD
 70
     0
  9
$DIMCLRE
 70
     0
  9
$DIMCLRT
 70
     0
  9
$DIMTFAC
 40
1.0
  9
$DIMGAP
 40
0.09
  9
$LUNITS
 70
     2
  9
$LUPREC
 70
     3
  9
$AXISMODE
 70
     0
  9
$AXISUNIT
 10
0.0
 20
0.0
  9
$SKETCHINC
 40
0.1
  9
$FILLETRAD
 40
0.0
  9
$AUNITS
 70
     0
  9
$AUPREC
 70
     2
  9
$MENU
  1
ACAD
  9
$ELEVATION
 40
0.0
  9
$PELEVATION
 40
0.0
  9
$THICKNESS
 40
0.0
  9
$LIMCHECK
 70
     1
  9
$BLIPMODE
 70
     1
  9
$CHAMFERA
 40
0.0
  9
$CHAMFERB
 40
0.0
  9
$SKPOLY
 70
     0
  9
$TDCREATE
 40
2448372.247847453
  9
$TDUPDATE
 40
2448526.327897916
  9
$TDINDWG
 40
0.0064017361
  9
$TDUSRTIMER
 40
0.0064017361
  9
$USRTIMER
 70
     1
  9
$ANGBASE
 50
0.0
  9
$ANGDIR
 70
     0
  9
$PDMODE
 70
     0
  9
$PDSIZE
 40
0.12
  9
$PLINEWID
 40
0.0
  9
$COORDS
 70
     2
  9
$SPLFRAME
 70
     0
  9
$SPLINETYPE
 70
     6
  9
$SPLINESEGS
 70
     8
  9
$ATTDIA
 70
     1
  9
$ATTREQ
 70
     1
  9
$HANDLING
 70
     0
  9
$HANDSEED
  5
0
  9
$SURFTAB1
 70
     6
  9
$SURFTAB2
 70
     6
  9
$SURFTYPE
 70
     6
  9
$SURFU
 70
     6
  9
$SURFV
 70
     6
  9
$UCSNAME
  2

  9
$UCSORG
 10
0.0
 20
0.0
 30
0.0
  9
$UCSXDIR
 10
1.0
 20
0.0
 30
0.0
  9
$UCSYDIR
 10
0.0
 20
1.0
 30
0.0
  9
$PUCSNAME
  2

  9
$PUCSORG
 10
0.0
 20
0.0
 30
0.0
  9
$PUCSXDIR
 10
1.0
 20
0.0
 30
0.0
  9
$PUCSYDIR
 10
0.0
 20
1.0
 30
0.0
  9
$USERI1
 70
     0
  9
$USERI2
 70
     0
  9
$USERI3
 70
     0
  9
$USERI4
 70
     0
  9
$USERI5
 70
     0
  9
$USERR1
 40
0.0
  9
$USERR2
 40
0.0
  9
$USERR3
 40
1.0
  9
$USERR4
 40
0.0
  9
$USERR5
 40
0.0
  9
$WORLDVIEW
 70
     1
  9
$SHADEDGE
 70
     3
  9
$SHADEDIF
 70
    70
  9
$TILEMODE
 70
     1
  9
$MAXACTVP
 70
    16
  9
$PINSBASE
 10
0.0
 20
0.0
 30
0.0
  9
$PLIMCHECK
 70
     0
  9
$PEXTMIN
 10
1.000000E+20
 20
1.000000E+20
 30
1.000000E+20
  9
$PEXTMAX
 10
-1.000000E+20
 20
-1.000000E+20
 30
-1.000000E+20
  9
$PLIMMIN
 10
0.0
 20
0.0
  9
$PLIMMAX
 10
12.0
 20
9.0
  9
$UNITMODE
 70
     0
  9
$VISRETAIN
 70
     0
  0
ENDSEC
  0
SECTION
  2
TABLES
  0
TABLE
  2
VPORT
 70
     2
  0
VPORT
  2
*ACTIVE
 70
     0
 10
0.0
 20
0.0
 11
1.0
 21
1.0
 12
8.021144
 22
5.0
 13
0.0
 23
0.0
 14
1.0
 24
1.0
 15
0.0
 25
0.0
 16
0.0
 26
0.0
 36
1.0
 17
0.0
 27
0.0
 37
0.0
 40
10.0
 41
1.604229
 42
50.0
 43
0.0
 44
0.0
 50
0.0
 51
0.0
 71
     0
 72
  1000
 73
     1
 74
     1
 75
     0
 76
     0
 77
     0
 78
     0
  0
ENDTAB
  0
TABLE
  2
LTYPE
 70
     1
  0
LTYPE
  2
CONTINUOUS
 70
    64
  3
Solid line
 72
    65
 73
     0
 40
0.0
  0
ENDTAB
  0
TABLE
  2
LAYER
 70
     5
  0
LAYER
  2
0
 70
    64
 62
     7
  6
CONTINUOUS
  0
LAYER
  2
LETTER
 70
    64
 62
     3
  6
CONTINUOUS
  0
ENDTAB
  0
TABLE
  2
STYLE
 70
     3
  0
STYLE
  2
STANDARD
 70
    64
 40
0.0
 41
1.0
 50
0.0
 71
     0
 42
0.4
  3
ROMANS
  4

  0
STYLE
  2
ROMANS
 70
    64
 40
0.125
 41
1.0
 50
0.0
 71
     0
 42
0.125
  3
ROMANS
  4

  0
STYLE
  2
ROMANT
 70
     0
 40
0.225
 41
1.0
 50
0.0
 71
     0
 42
0.225
  3
romant
  4

  0
ENDTAB
  0
TABLE
  2
VIEW
 70
     0
  0
ENDTAB
  0
TABLE
  2
UCS
 70
     0
  0
ENDTAB
  0
TABLE
  2
APPID
 70
     1
  0
APPID
  2
ACAD
 70
    64
  0
ENDTAB
  0
TABLE
  2
DIMSTYLE
 70
     0
  0
ENDTAB
  0
ENDSEC
  0
SECTION
  2
BLOCKS
  0
BLOCK
  8
0
  2
TBLKLOGO
 70
    64
 10
0.0
 20
0.0
 30
0.0
  3
TBLKLOGO
  0
ENDBLK
  8
0
  0
ENDSEC
  0
SECTION
  2
ENTITIES
  0
LINE
  8
0
 62
     7
 10
1.251765
 20
2.406176
 30
0.0
 11
1.251765
 21
2.657196
 31
0.0
  0
LINE
  8
0
 62
     7
 10
1.582647
 20
2.406176
 30
0.0
 11
1.582647
 21
2.657196
 31
0.0
  0
LINE
  8
0
 62
     7
 10
2.023823
 20
2.406176
 30
0.0
 11
2.023823
 21
2.657196
 31
0.0
  0
LINE
  8
0
 62
     7
 10
3.126765
 20
2.406176
 30
0.0
 11
3.126765
 21
2.657196
 31
0.0
  0
LINE
  8
0
 62
     7
 10
5.663529
 20
2.406176
 30
0.0
 11
5.663529
 21
2.657196
 31
0.0
  0
LINE
  8
0
 62
     7
 10
7.428235
 20
2.406176
 30
0.0
 11
7.428235
 21
2.657196
 31
0.0
  0
TEXT
  8
LETTER
 62
     3
 10
0.99658
 20
2.275286
 30
0.0
 40
0.05
  1
PAGE
  0
TEXT
  8
LETTER
 62
     3
 10
1.024048
 20
2.156743
 30
0.0
 40
0.05
  1
NBR.
  0
TEXT
  8
LETTER
 62
     3
 10
4.950651
 20
0.427954
 30
0.0
 40
0.05
  1
CAD
  0
TEXT
  8
LETTER
 62
     3
 10
5.26858
 20
0.364274
 30
0.0
 40
0.1
  1
XXXXXXXX
  0
LINE
  8
0
 62
     7
 10
7.759117
 20
9.575294
 30
0.0
 11
0.700294
 21
9.575294
 31
0.0
  0
LINE
  8
0
 62
     7
 10
0.920882
 20
0.310588
 30
0.0
 11
7.759117
 21
0.310588
 31
0.0
  0
LINE
  8
0
 62
     7
 10
0.920882
 20
9.575294
 30
0.0
 11
0.920882
 21
0.310588
 31
0.0
  0
LINE
  8
0
 62
     7
 10
7.759117
 20
0.310588
 30
0.0
 11
7.759117
 21
9.575294
 31
0.0
  0
LINE
  8
0
 62
     7
 10
7.759117
 20
1.854706
 30
0.0
 11
0.920882
 21
1.854706
 31
0.0
  0
LINE
  8
0
 62
     7
 10
4.009117
 20
0.310588
 30
0.0
 11
4.009117
 21
1.854706
 31
0.0
  0
LINE
  8
0
 62
     7
 10
0.920882
 20
0.531176
 30
0.0
 11
7.759117
 21
0.531176
 31
0.0
  0
LINE
  8
0
 62
     7
 10
4.009117
 20
0.862059
 30
0.0
 11
7.759117
 21
0.862059
 31
0.0
  0
LINE
  8
0
 62
     7
 10
2.244412
 20
1.413529
 30
0.0
 11
7.759117
 21
1.413529
 31
0.0
  0
LINE
  8
0
 62
     7
 10
6.215
 20
0.310588
 30
0.0
 11
6.215
 21
0.531176
 31
0.0
  0
LINE
  8
0
 62
     7
 10
4.89147
 20
0.310588
 30
0.0
 11
4.89147
 21
0.531176
 31
0.0
  0
LINE
  8
0
 62
     7
 10
7.428235
 20
0.531176
 30
0.0
 11
7.428235
 21
0.862059
 31
0.0
  0
LINE
  8
0
 62
     7
 10
4.34
 20
0.531176
 30
0.0
 11
4.34
 21
0.862059
 31
0.0
  0
LINE
  8
0
 62
     7
 10
5.442941
 20
0.531176
 30
0.0
 11
5.442941
 21
0.862059
 31
0.0
  0
LINE
  8
0
 62
     7
 10
2.244412
 20
0.310588
 30
0.0
 11
2.244412
 21
1.854706
 31
0.0
  0
TEXT
  8
LETTER
 62
     3
 10
2.279706
 20
1.766471
 30
0.0
 40
0.052941
  1
CONTRACT NO.
  0
TEXT
  8
LETTER
 62
     3
 10
2.279706
 20
0.663529
 30
0.0
 40
0.052941
  1
ISSUED
  0
TEXT
  8
LETTER
 62
     3
 10
2.279706
 20
0.884118
 30
0.0
 40
0.052941
  1
CHECKED
  0
TEXT
  8
LETTER
 62
     3
 10
2.279706
 20
1.104706
 30
0.0
 40
0.052941
  1
DRAWN
  0
TEXT
  8
LETTER
 62
     3
 10
2.682695
 20
1.269587
 30
0.0
 40
0.052941
  1
APPROVALS
 72
     4
 11
2.902023
 21
1.296057
 31
0.0
  0
TEXT
  8
LETTER
 62
     3
 10
3.69149
 20
1.269587
 30
0.0
 40
0.052941
  1
DATE
 72
     4
 11
3.787289
 21
1.296057
 31
0.0
  0
LINE
  8
0
 62
     7
 10
3.567941
 20
1.413529
 30
0.0
 11
3.567941
 21
0.310588
 31
0.0
  0
LINE
  8
0
 62
     7
 10
0.920882
 20
1.192941
 30
0.0
 11
4.004706
 21
1.192941
 31
0.0
  0
LINE
  8
0
 62
     7
 10
2.244412
 20
0.972353
 30
0.0
 11
4.009117
 21
0.972353
 31
0.0
  0
LINE
  8
0
 62
     7
 10
2.244412
 20
0.751765
 30
0.0
 11
4.009117
 21
0.751765
 31
0.0
  0
TEXT
  8
LETTER
 62
     3
 10
4.088844
 20
0.773822
 30
0.0
 40
0.052941
  1
SIZE
 72
     1
 11
4.174559
 21
0.773822
 31
0.0
  0
TEXT
  8
LETTER
 62
     3
 10
4.375617
 20
0.773823
 30
0.0
 40
0.052941
  1
FSCM NO.
  0
TEXT
  8
LETTER
 62
     3
 10
5.478235
 20
0.773823
 30
0.0
 40
0.052941
  1
DWG NO.
  0
TEXT
  8
LETTER
 62
     3
 10
7.516785
 20
0.773823
 30
0.0
 40
0.052941
  1
REV
 72
     1
 11
7.593676
 21
0.773823
 31
0.0
  0
TEXT
  8
LETTER
 62
     3
 10
4.046574
 20
0.430413
 30
0.0
 40
0.052941
  1
SCALE
  0
TEXT
  8
LETTER
 62
     3
 10
6.252457
 20
0.430413
 30
0.0
 40
0.052941
  1
SHEET
  0
TEXT
  8
LETTER
 62
     3
 10
4.106491
 20
0.572338
 30
0.0
 40
0.158824
  1
A
 72
     4
 11
4.174559
 21
0.65175
 31
0.0
  0
LINE
  8
0
 62
     7
 10
0.920882
 20
9.134117
 30
0.0
 11
7.759117
 21
9.134117
 31
0.0
  0
LINE
  8
0
 62
     7
 10
3.347353
 20
9.354705
 30
0.0
 11
3.347353
 21
8.913529
 31
0.0
  0
LINE
  8
0
 62
     7
 10
2.906176
 20
9.575294
 30
0.0
 11
2.906176
 21
8.913529
 31
0.0
  0
LINE
  8
0
 62
     7
 10
0.920882
 20
9.354705
 30
0.0
 11
7.759117
 21
9.354705
 31
0.0
  0
LINE
  8
0
 62
     7
 10
3.678235
 20
9.354705
 30
0.0
 11
3.678235
 21
8.913529
 31
0.0
  0
LINE
  8
0
 62
     7
 10
6.876764
 20
8.913529
 30
0.0
 11
6.876764
 21
9.354705
 31
0.0
  0
LINE
  8
0
 62
     7
 10
6.104706
 20
8.913529
 30
0.0
 11
6.104706
 21
9.354705
 31
0.0
  0
TEXT
  8
LETTER
 62
     3
 10
2.997353
 20
9.209117
 30
0.0
 40
0.070588
  1
ZONE
 72
     4
 11
3.126765
 21
9.244411
 31
0.0
  0
TEXT
  8
LETTER
 62
     3
 10
3.406912
 20
9.209117
 30
0.0
 40
0.070588
  1
REV
 72
     4
 11
3.512794
 21
9.244411
 31
0.0
  0
TEXT
  8
LETTER
 62
     3
 10
6.361323
 20
9.209117
 30
0.0
 40
0.070588
  1
DATE
 72
     4
 11
6.490735
 21
9.244411
 31
0.0
  0
TEXT
  8
LETTER
 62
     3
 10
7.035588
 20
9.209117
 30
0.0
 40
0.070588
  1
APPROVED
 72
     4
 11
7.317941
 21
9.244411
 31
0.0
  0
TEXT
  8
LETTER
 62
     3
 10
5.06542
 20
9.429705
 30
0.0
 40
0.070588
  1
REVISIONS
 72
     4
 11
5.332647
 21
9.465
 31
0.0
  0
TEXT
  8
LETTER
 62
     3
 10
4.538529
 20
9.209117
 30
0.0
 40
0.070588
  1
DESCRIPTION
 72
     4
 11
4.89147
 21
9.244411
 31
0.0
  0
LINE
  8
0
 62
     7
 10
0.920882
 20
9.244411
 30
0.0
 11
0.700294
 21
9.244411
 31
0.0
  0
LINE
  8
0
 62
     7
 10
0.700294
 20
9.575294
 30
0.0
 11
0.700294
 21
7.148823
 31
0.0
  0
LINE
  8
0
 62
     7
 10
0.700294
 20
7.148823
 30
0.0
 11
0.920882
 21
7.148823
 31
0.0
  0
LINE
  8
0
 62
     7
 10
0.920882
 20
8.913529
 30
0.0
 11
0.700294
 21
8.913529
 31
0.0
  0
TEXT
  8
LETTER
 62
     3
 10
0.788529
 20
7.184117
 30
0.0
 40
0.052941
  1
DWG NO.
 50
90.0
  0
TEXT
  8
LETTER
 62
     3
 10
0.788529
 20
8.948823
 30
0.0
 40
0.052941
  1
SH
 50
90.0
  0
TEXT
  8
LETTER
 62
     3
 10
0.788529
 20
9.279705
 30
0.0
 40
0.052941
  1
REV
 50
90.0
  0
TEXT
  8
LETTER
 62
     3
 10
0.956176
 20
1.118194
 30
0.0
 40
0.052941
  1
MATERIAL
  0
TEXT
  8
LETTER
 62
     3
 10
0.956176
 20
0.773823
 30
0.0
 40
0.052941
  1
FINISH
  0
LINE
  8
0
 62
     7
 10
2.244412
 20
0.862059
 30
0.0
 11
0.920882
 21
0.862059
 31
0.0
  0
TEXT
  8
LETTER
 62
     3
 10
0.956176
 20
1.766471
 30
0.0
 40
0.052941
  1
UNLESS OTHERWISE SPECIFIED
  0
TEXT
  8
LETTER
 62
     3
 10
0.956176
 20
1.678235
 30
0.0
 40
0.052941
  1
DIMENSIONS ARE IN INCHES
  0
TEXT
  8
LETTER
 62
     3
 10
0.956176
 20
1.59
 30
0.0
 40
0.052941
  1
TOLERANCES ARE:
  0
TEXT
  8
LETTER
 62
     3
 10
0.946426
 20
1.457647
 30
0.0
 40
0.052941
  1
FRACTIONS
  0
TEXT
  8
LETTER
 62
     3
 10
0.996002
 20
1.351765
 30
0.0
 40
0.052941
  1
%%P
  0
TEXT
  8
LETTER
 62
     3
 10
1.368581
 20
1.351765
 30
0.0
 40
0.052941
  1
.XX
  0
TEXT
  8
LETTER
 62
     3
 10
1.368581
 20
1.249191
 30
0.0
 40
0.052941
  1
.XXX
  0
TEXT
  8
LETTER
 62
     3
 10
1.572578
 20
1.351765
 30
0.0
 40
0.052941
  1
%%P
  0
TEXT
  8
LETTER
 62
     3
 10
1.572578
 20
1.249191
 30
0.0
 40
0.052941
  1
%%P
  0
TEXT
  8
LETTER
 62
     3
 10
1.929235
 20
1.351765
 30
0.0
 40
0.052941
  1
%%P
  0
TEXT
  8
LETTER
 62
     3
 10
1.42402
 20
1.457647
 30
0.0
 40
0.052941
  1
DECIMALS
  0
TEXT
  8
LETTER
 62
     3
 10
1.895148
 20
1.457647
 30
0.0
 40
0.052941
  1
ANGLES
  0
TEXT
  8
LETTER
 62
     3
 10
7.525609
 20
2.154706
 30
0.0
 40
0.052941
  1
NO.
 72
     4
 11
7.593676
 21
2.181176
 31
0.0
  0
TEXT
  8
LETTER
 62
     3
 10
7.509222
 20
2.273823
 30
0.0
 40
0.052941
  1
ITEM
 72
     4
 11
7.593676
 21
2.300294
 31
0.0
  0
TEXT
  8
LETTER
 62
     3
 10
6.267311
 20
2.154706
 30
0.0
 40
0.052941
  1
SPECIFICATION
 72
     4
 11
6.545882
 21
2.181176
 31
0.0
  0
TEXT
  8
LETTER
 62
     3
 10
6.364369
 20
2.273823
 30
0.0
 40
0.052941
  1
MATERIAL
 72
     4
 11
6.545882
 21
2.300294
 31
0.0
  0
TEXT
  8
LETTER
 62
     3
 10
4.064895
 20
2.154706
 30
0.0
 40
0.052941
  1
OR DESCRIPTION
 72
     4
 11
4.395147
 21
2.181176
 31
0.0
  0
TEXT
  8
LETTER
 62
     3
 10
4.086323
 20
2.273823
 30
0.0
 40
0.052941
  1
NOMENCLATURE
 72
     4
 11
4.395147
 21
2.300294
 31
0.0
  0
TEXT
  8
LETTER
 62
     3
 10
2.252605
 20
2.154706
 30
0.0
 40
0.052941
  1
IDENTIFYING NO.
 72
     4
 11
2.575294
 21
2.181176
 31
0.0
  0
TEXT
  8
LETTER
 62
     3
 10
1.735168
 20
2.154706
 30
0.0
 40
0.052941
  1
NO.
 72
     4
 11
1.803235
 21
2.181176
 31
0.0
  0
TEXT
  8
LETTER
 62
     3
 10
1.311323
 20
2.157227
 30
0.0
 40
0.052941
  1
REQD
 72
     4
 11
1.417206
 21
2.181176
 31
0.0
  0
TEXT
  8
LETTER
 62
     3
 10
2.397563
 20
2.273823
 30
0.0
 40
0.052941
  1
PART OR
 72
     4
 11
2.575294
 21
2.300294
 31
0.0
  0
TEXT
  8
LETTER
 62
     3
 10
1.698613
 20
2.273823
 30
0.0
 40
0.052941
  1
FSCM
 72
     4
 11
1.803235
 21
2.300294
 31
0.0
  0
TEXT
  8
LETTER
 62
     3
 10
1.344097
 20
2.276344
 30
0.0
 40
0.052941
  1
QTY
 72
     4
 11
1.417206
 21
2.300294
 31
0.0
  0
LINE
  8
0
 62
     7
 10
3.126765
 20
2.075294
 30
0.0
 11
3.126765
 21
2.406176
 31
0.0
  0
LINE
  8
0
 62
     7
 10
2.023823
 20
2.075294
 30
0.0
 11
2.023823
 21
2.406176
 31
0.0
  0
LINE
  8
0
 62
     7
 10
1.582647
 20
2.075294
 30
0.0
 11
1.582647
 21
2.406176
 31
0.0
  0
LINE
  8
0
 62
     7
 10
1.251765
 20
2.075294
 30
0.0
 11
1.251765
 21
2.406176
 31
0.0
  0
LINE
  8
0
 62
     7
 10
5.663529
 20
2.075294
 30
0.0
 11
5.663529
 21
2.406176
 31
0.0
  0
LINE
  8
0
 62
     7
 10
7.428235
 20
2.075294
 30
0.0
 11
7.428235
 21
2.406176
 31
0.0
  0
LINE
  8
0
 62
     7
 10
0.920882
 20
2.406176
 30
0.0
 11
7.759117
 21
2.406176
 31
0.0
  0
LINE
  8
0
 62
     7
 10
7.759117
 20
2.075294
 30
0.0
 11
0.920882
 21
2.075294
 31
0.0
  0
TEXT
  8
LETTER
 62
     3
 10
3.99492
 20
1.929706
 30
0.0
 40
0.070588
  1
PARTS LIST
 72
     4
 11
4.299122
 21
1.965
 31
0.0
  0
TEXT
  8
LETTER
 62
     3
 10
2.287059
 20
0.385588
 30
0.0
 40
0.070588
  1
DO NOT SCALE DRAWING
 50
0.0
 41
0.92786
 72
     5
 11
3.500294
 21
0.385588
 31
0.0
  0
LINE
  8
0
 62
     7
 10
7.89147
 20
4.942941
 30
0.0
 11
7.979706
 21
4.942941
 31
0.0
  0
SOLID
  8
LETTER
 62
     3
 10
7.759117
 20
4.942941
 30
0.0
 11
7.89147
 21
5.009117
 31
0.0
 12
7.89147
 22
4.876764
 32
0.0
 13
7.89147
 23
4.876764
 33
0.0
  0
LINE
  8
0
 62
     7
 10
4.34
 20
9.707647
 30
0.0
 11
4.34
 21
9.795882
 31
0.0
  0
SOLID
  8
LETTER
 62
     3
 10
4.34
 20
9.575294
 30
0.0
 11
4.273823
 21
9.707647
 31
0.0
 12
4.406176
 22
9.707647
 32
0.0
 13
4.406176
 23
9.707647
 33
0.0
  0
SOLID
  8
LETTER
 62
     3
 10
4.34
 20
0.310588
 30
0.0
 11
4.273823
 21
0.178235
 31
0.0
 12
4.406176
 22
0.178235
 32
0.0
 13
4.406176
 23
0.178235
 33
0.0
  0
LINE
  8
0
 62
     7
 10
4.34
 20
0.178235
 30
0.0
 11
4.34
 21
0.09
 31
0.0
  0
SOLID
  8
LETTER
 62
     3
 10
0.920882
 20
4.942941
 30
0.0
 11
0.788529
 21
5.009117
 31
0.0
 12
0.788529
 22
4.876764
 32
0.0
 13
0.788529
 23
4.876764
 33
0.0
  0
LINE
  8
0
 62
     7
 10
0.788529
 20
4.942941
 30
0.0
 11
0.700294
 21
4.942941
 31
0.0
  0
TEXT
  8
LETTER
 62
     3
 10
1.595882
 20
9.429705
 30
0.0
 40
0.070588
  1
APPLICATION
 72
     4
 11
1.913529
 21
9.465
 31
0.0
  0
TEXT
  8
LETTER
 62
     3
 10
2.224559
 20
9.217941
 30
0.0
 40
0.052941
  1
USED ON
 72
     4
 11
2.409853
 21
9.244411
 31
0.0
  0
TEXT
  8
LETTER
 62
     3
 10
1.194097
 20
9.217941
 30
0.0
 40
0.052941
  1
NEXT ASSY
 72
     4
 11
1.417206
 21
9.244411
 31
0.0
  0
LINE
  8
0
 62
     7
 10
1.913529
 20
9.354705
 30
0.0
 11
1.913529
 21
8.913529
 31
0.0
  0
INSERT
  8
0
  2
TBLKLOGO
 10
6.0
 20
1.75
 30
0.0
 41
0.5
 42
0.5
 43
0.5
  0
TEXT
  8
LETTER
 62
     3
 10
1.093525
 20
1.353995
 30
0.0
 40
0.053
  1
1/32"
  7
ROMANS
  0
TEXT
  8
LETTER
 62
     3
 10
1.646775
 20
1.353995
 30
0.0
 40
0.053
  1
.010"
  7
ROMANS
  0
TEXT
  8
LETTER
 62
     3
 10
1.646775
 20
1.253281
 30
0.0
 40
0.053
  1
.005"
  7
ROMANS
  0
TEXT
  8
LETTER
 62
     3
 10
1.98509
 20
1.353995
 30
0.0
 40
0.053
  1
1/4%%d
  7
ROMANS
  0
TEXT
  8
LETTER
 62
     3
 10
2.676408
 20
1.038119
 30
0.0
 40
0.08
  1
T. KRUEGER
  7
ROMANS
  0
TEXT
  8
LETTER
 62
     3
 10
3.595692
 20
1.051067
 30
0.0
 40
0.052941
  1
X-XX-XX
 72
     4
 11
3.787289
 21
1.077538
 31
0.0
  0
TEXT
  8
LETTER
 62
     3
 10
4.336375
 20
1.058332
 30
0.0
 40
0.1404
  1
XXXXX XXXXX XXXXX XXXXX
  7
ROMANS
 72
     4
 11
5.884117
 21
1.128532
 31
0.0
  0
TEXT
  8
LETTER
 62
     3
 10
6.02444
 20
0.634118
 30
0.0
 40
0.125
  1
XXXXXXXXXX
  7
ROMANS
 72
     4
 11
6.619678
 21
0.696618
 31
0.0
  0
TEXT
  8
LETTER
 62
     3
 10
0.866637
 20
7.692817
 30
0.0
 40
0.1125
  1
XXXXXXXXXX
 50
90.0
  7
ROMANS
 72
     4
 11
0.810387
 21
8.228531
 31
0.0
  0
TEXT
  8
LETTER
 62
     3
 10
6.753052
 20
0.364274
 30
0.0
 40
0.1
  1
X OF X
  0
TEXT
  8
LETTER
 62
     3
 10
4.365265
 20
0.364274
 30
0.0
 40
0.1
  1
NONE
  0
ENDSEC
  0
EOF
