  0
SECTION
  2
HEADER
  9
$ACADVER
  1
AC1009
  9
$INSBASE
 10
0.0
 20
0.0
 30
0.0
  9
$EXTMIN
 10
0.245685
 20
0.1
 30
0.0
  9
$EXTMAX
 10
15.665685
 20
9.85
 30
0.0
  9
$LIMMIN
 10
0.0
 20
0.0
  9
$LIMMAX
 10
17.0
 20
11.0
  9
$ORTHOMODE
 70
     1
  9
$REGENMODE
 70
     1
  9
$FILLMODE
 70
     1
  9
$QTEXTMODE
 70
     0
  9
$MIRRTEXT
 70
     1
  9
$DRAGMODE
 70
     2
  9
$LTSCALE
 40
1.0
  9
$OSMODE
 70
     0
  9
$ATTMODE
 70
     1
  9
$TEXTSIZE
 40
0.12
  9
$TRACEWID
 40
0.05
  9
$TEXTSTYLE
  7
ROMANC
  9
$CLAYER
  8
0
  9
$CELTYPE
  6
BYLAYER
  9
$CECOLOR
 62
   256
  9
$DIMSCALE
 40
1.0
  9
$DIMASZ
 40
0.18
  9
$DIMEXO
 40
0.0625
  9
$DIMDLI
 40
0.38
  9
$DIMRND
 40
0.0
  9
$DIMDLE
 40
0.0
  9
$DIMEXE
 40
0.18
  9
$DIMTP
 40
0.0
  9
$DIMTM
 40
0.0
  9
$DIMTXT
 40
0.18
  9
$DIMCEN
 40
0.09
  9
$DIMTSZ
 40
0.0
  9
$DIMTOL
 70
     0
  9
$DIMLIM
 70
     0
  9
$DIMTIH
 70
     1
  9
$DIMTOH
 70
     1
  9
$DIMSE1
 70
     0
  9
$DIMSE2
 70
     0
  9
$DIMTAD
 70
     0
  9
$DIMZIN
 70
     0
  9
$DIMBLK
  1

  9
$DIMASO
 70
     1
  9
$DIMSHO
 70
     0
  9
$DIMPOST
  1

  9
$DIMAPOST
  1

  9
$DIMALT
 70
     0
  9
$DIMALTD
 70
     2
  9
$DIMALTF
 40
25.4
  9
$DIMLFAC
 40
1.0
  9
$DIMTOFL
 70
     0
  9
$DIMTVP
 40
0.0
  9
$DIMTIX
 70
     0
  9
$DIMSOXD
 70
     0
  9
$DIMSAH
 70
     0
  9
$DIMBLK1
  1

  9
$DIMBLK2
  1

  9
$DIMSTYLE
  2
*UNNAMED
  9
$DIMCLRD
 70
     0
  9
$DIMCLRE
 70
     0
  9
$DIMCLRT
 70
     0
  9
$DIMTFAC
 40
1.0
  9
$DIMGAP
 40
0.09
  9
$LUNITS
 70
     2
  9
$LUPREC
 70
     4
  9
$AXISMODE
 70
     0
  9
$AXISUNIT
 10
0.0
 20
0.0
  9
$SKETCHINC
 40
0.1
  9
$FILLETRAD
 40
0.0
  9
$AUNITS
 70
     0
  9
$AUPREC
 70
     0
  9
$MENU
  1
ACAD
  9
$ELEVATION
 40
0.0
  9
$PELEVATION
 40
0.0
  9
$THICKNESS
 40
0.0
  9
$LIMCHECK
 70
     1
  9
$BLIPMODE
 70
     1
  9
$CHAMFERA
 40
0.0
  9
$CHAMFERB
 40
0.0
  9
$SKPOLY
 70
     0
  9
$TDCREATE
 40
2448359.388435069
  9
$TDUPDATE
 40
2448526.338214583
  9
$TDINDWG
 40
0.0046425926
  9
$TDUSRTIMER
 40
0.0046425926
  9
$USRTIMER
 70
     1
  9
$ANGBASE
 50
0.0
  9
$ANGDIR
 70
     0
  9
$PDMODE
 70
     0
  9
$PDSIZE
 40
0.0
  9
$PLINEWID
 40
0.0
  9
$COORDS
 70
     0
  9
$SPLFRAME
 70
     0
  9
$SPLINETYPE
 70
     6
  9
$SPLINESEGS
 70
     8
  9
$ATTDIA
 70
     0
  9
$ATTREQ
 70
     1
  9
$HANDLING
 70
     0
  9
$HANDSEED
  5
0
  9
$SURFTAB1
 70
     6
  9
$SURFTAB2
 70
     6
  9
$SURFTYPE
 70
     6
  9
$SURFU
 70
     6
  9
$SURFV
 70
     6
  9
$UCSNAME
  2

  9
$UCSORG
 10
0.0
 20
0.0
 30
0.0
  9
$UCSXDIR
 10
1.0
 20
0.0
 30
0.0
  9
$UCSYDIR
 10
0.0
 20
1.0
 30
0.0
  9
$PUCSNAME
  2

  9
$PUCSORG
 10
0.0
 20
0.0
 30
0.0
  9
$PUCSXDIR
 10
1.0
 20
0.0
 30
0.0
  9
$PUCSYDIR
 10
0.0
 20
1.0
 30
0.0
  9
$USERI1
 70
     0
  9
$USERI2
 70
     0
  9
$USERI3
 70
     0
  9
$USERI4
 70
     0
  9
$USERI5
 70
     0
  9
$USERR1
 40
0.0
  9
$USERR2
 40
0.0
  9
$USERR3
 40
0.0
  9
$USERR4
 40
0.0
  9
$USERR5
 40
0.0
  9
$WORLDVIEW
 70
     0
  9
$SHADEDGE
 70
     3
  9
$SHADEDIF
 70
    70
  9
$TILEMODE
 70
     1
  9
$MAXACTVP
 70
    16
  9
$PINSBASE
 10
0.0
 20
0.0
 30
0.0
  9
$PLIMCHECK
 70
     0
  9
$PEXTMIN
 10
1.000000E+20
 20
1.000000E+20
 30
1.000000E+20
  9
$PEXTMAX
 10
-1.000000E+20
 20
-1.000000E+20
 30
-1.000000E+20
  9
$PLIMMIN
 10
0.0
 20
0.0
  9
$PLIMMAX
 10
12.0
 20
9.0
  9
$UNITMODE
 70
     0
  9
$VISRETAIN
 70
     0
  0
ENDSEC
  0
SECTION
  2
TABLES
  0
TABLE
  2
VPORT
 70
     2
  0
VPORT
  2
*ACTIVE
 70
     0
 10
0.0
 20
0.0
 11
1.0
 21
1.0
 12
8.823259
 22
5.5
 13
0.0
 23
0.0
 14
0.01
 24
0.01
 15
0.0
 25
0.0
 16
0.0
 26
0.0
 36
1.0
 17
0.0
 27
0.0
 37
0.0
 40
11.0
 41
1.604229
 42
50.0
 43
0.0
 44
0.0
 50
0.0
 51
0.0
 71
     0
 72
   100
 73
     1
 74
     1
 75
     0
 76
     0
 77
     0
 78
     0
  0
ENDTAB
  0
TABLE
  2
LTYPE
 70
     4
  0
LTYPE
  2
CONTINUOUS
 70
    64
  3
Solid line
 72
    65
 73
     0
 40
0.0
  0
ENDTAB
  0
TABLE
  2
LAYER
 70
     5
  0
LAYER
  2
0
 70
    64
 62
     7
  6
CONTINUOUS
  0
LAYER
  2
FORMAT
 70
    64
 62
     3
  6
CONTINUOUS
  0
ENDTAB
  0
TABLE
  2
STYLE
 70
     3
  0
STYLE
  2
STANDARD
 70
    64
 40
0.0
 41
1.0
 50
0.0
 71
     0
 42
0.12
  3
COMPLEX
  4

  0
STYLE
  2
ROMANC
 70
    64
 40
0.12
 41
1.0
 50
0.0
 71
     0
 42
0.12
  3
romanc
  4

  0
ENDTAB
  0
TABLE
  2
VIEW
 70
     0
  0
ENDTAB
  0
TABLE
  2
UCS
 70
     0
  0
ENDTAB
  0
TABLE
  2
APPID
 70
     1
  0
APPID
  2
ACAD
 70
    64
  0
ENDTAB
  0
TABLE
  2
DIMSTYLE
 70
     0
  0
ENDTAB
  0
ENDSEC
  0
SECTION
  2
BLOCKS
  0
BLOCK
  8
0
  2
TBLKLOGO
 70
    64
 10
0.0
 20
0.0
 30
0.0
  3
TBLKLOGO
  0
ENDBLK
  8
0
  0
ENDSEC
  0
SECTION
  2
ENTITIES
  0
LINE
  8
0
 62
     7
 10
15.515685
 20
2.0
 30
0.0
 11
11.265685
 21
2.0
 31
0.0
  0
LINE
  8
0
 62
     7
 10
11.265685
 20
0.25
 30
0.0
 11
11.265685
 21
2.0
 31
0.0
  0
LINE
  8
0
 62
     7
 10
11.265685
 20
0.5
 30
0.0
 11
15.515685
 21
0.5
 31
0.0
  0
LINE
  8
0
 62
     7
 10
11.265685
 20
0.875
 30
0.0
 11
15.515685
 21
0.875
 31
0.0
  0
LINE
  8
0
 62
     7
 10
13.765685
 20
0.25
 30
0.0
 11
13.765685
 21
0.5
 31
0.0
  0
LINE
  8
0
 62
     7
 10
12.265685
 20
0.25
 30
0.0
 11
12.265685
 21
0.5
 31
0.0
  0
LINE
  8
0
 62
     7
 10
15.140685
 20
0.5
 30
0.0
 11
15.140685
 21
0.875
 31
0.0
  0
LINE
  8
0
 62
     7
 10
11.640685
 20
0.5
 30
0.0
 11
11.640685
 21
0.875
 31
0.0
  0
LINE
  8
0
 62
     7
 10
12.765685
 20
0.5
 30
0.0
 11
12.765685
 21
0.875
 31
0.0
  0
TEXT
  8
FORMAT
 62
     3
 10
11.356042
 20
0.774998
 30
0.0
 40
0.06
  1
SIZE
 72
     1
 11
11.453185
 21
0.774998
 31
0.0
  0
TEXT
  8
FORMAT
 62
     3
 10
11.680685
 20
0.775
 30
0.0
 40
0.06
  1
FSCM NO.
  0
TEXT
  8
FORMAT
 62
     3
 10
12.805685
 20
0.775
 30
0.0
 40
0.06
  1
DWG NO.
  0
TEXT
  8
FORMAT
 62
     3
 10
15.241042
 20
0.775
 30
0.0
 40
0.06
  1
REV
 72
     1
 11
15.328185
 21
0.775
 31
0.0
  0
TEXT
  8
FORMAT
 62
     3
 10
11.308136
 20
0.344987
 30
0.0
 40
0.06
  1
SCALE
  0
TEXT
  8
FORMAT
 62
     3
 10
13.808136
 20
0.344987
 30
0.0
 40
0.06
  1
SHEET
  0
TEXT
  8
FORMAT
 62
     3
 10
11.358899
 20
0.54665
 30
0.0
 40
0.18
  1
B
 72
     4
 11
11.453185
 21
0.63665
 31
0.0
  0
LINE
  8
0
 62
     7
 10
12.613523
 20
9.6
 30
0.0
 11
12.613523
 21
9.85
 31
0.0
  0
LINE
  8
0
 62
     7
 10
12.988523
 20
9.85
 30
0.0
 11
10.238523
 21
9.85
 31
0.0
  0
LINE
  8
0
 62
     7
 10
10.238523
 20
9.85
 30
0.0
 11
10.238523
 21
9.6
 31
0.0
  0
LINE
  8
0
 62
     7
 10
12.988523
 20
9.6
 30
0.0
 11
12.988523
 21
9.85
 31
0.0
  0
LINE
  8
0
 62
     7
 10
12.238523
 20
9.6
 30
0.0
 11
12.238523
 21
9.85
 31
0.0
  0
TEXT
  8
FORMAT
 62
     3
 10
10.278523
 20
9.75
 30
0.0
 40
0.06
  1
DWG NO.
  0
TEXT
  8
FORMAT
 62
     3
 10
12.278523
 20
9.75
 30
0.0
 40
0.06
  1
SH
  0
TEXT
  8
FORMAT
 62
     3
 10
12.653523
 20
9.75
 30
0.0
 40
0.06
  1
REV
  0
LINE
  8
0
 62
     7
 10
11.265685
 20
1.5
 30
0.0
 11
15.515685
 21
1.5
 31
0.0
  0
SOLID
  8
FORMAT
 62
     3
 10
15.515685
 20
4.925
 30
0.0
 11
15.665685
 21
5.0
 31
0.0
 12
15.665685
 22
4.85
 32
0.0
 13
15.665685
 23
4.85
 33
0.0
  0
SOLID
  8
FORMAT
 62
     3
 10
7.955685
 20
9.6
 30
0.0
 11
7.880685
 21
9.75
 31
0.0
 12
8.030685
 22
9.75
 32
0.0
 13
8.030685
 23
9.75
 33
0.0
  0
SOLID
  8
FORMAT
 62
     3
 10
0.395685
 20
4.925
 30
0.0
 11
0.245685
 21
4.85
 31
0.0
 12
0.245685
 22
5.0
 32
0.0
 13
0.245685
 23
5.0
 33
0.0
  0
SOLID
  8
FORMAT
 62
     3
 10
7.955685
 20
0.25
 30
0.0
 11
8.030685
 21
0.1
 31
0.0
 12
7.880685
 22
0.1
 32
0.0
 13
7.880685
 23
0.1
 33
0.0
  0
INSERT
  8
0
  2
TBLKLOGO
 10
14.25
 20
1.875
 30
0.0
 41
0.5
 42
0.5
 43
0.5
  0
LINE
  8
0
 62
     7
 10
0.395685
 20
9.6
 30
0.0
 11
15.515685
 21
9.6
 31
0.0
  0
LINE
  8
0
 62
     7
 10
0.395685
 20
0.25
 30
0.0
 11
15.515685
 21
0.25
 31
0.0
  0
LINE
  8
0
 62
     7
 10
0.395685
 20
9.6
 30
0.0
 11
0.395685
 21
0.25
 31
0.0
  0
LINE
  8
0
 62
     7
 10
15.515685
 20
9.6
 30
0.0
 11
15.515685
 21
0.25
 31
0.0
  0
TEXT
  8
FORMAT
 62
     3
 10
12.319526
 20
0.39851
 30
0.0
 40
0.06
  1
CAD
  0
TEXT
  8
FORMAT
 62
     3
 10
12.702113
 20
1.210766
 30
0.0
 40
0.12
  1
TITLE LINE #1
  7
ROMANC
 72
     1
 11
13.390685
 21
1.210766
 31
0.0
  0
TEXT
  8
FORMAT
 62
     3
 10
12.696399
 20
1.01648
 30
0.0
 40
0.12
  1
TITLE LINE #2
  7
ROMANC
 72
     1
 11
13.390685
 21
1.01648
 31
0.0
  0
TEXT
  8
FORMAT
 62
     3
 10
13.569963
 20
0.612389
 30
0.0
 40
0.12
  1
XXXXXXXXXX
  7
ROMANC
 72
     1
 11
14.141392
 21
0.612389
 31
0.0
  0
TEXT
  8
FORMAT
 62
     3
 10
12.741409
 20
0.323738
 30
0.0
 40
0.08
  1
XXXXXXXX
  7
ROMANC
 72
     1
 11
13.046171
 21
0.323738
 31
0.0
  0
TEXT
  8
FORMAT
 62
     3
 10
14.487076
 20
0.323738
 30
0.0
 40
0.08
  1
1 OF 1
  7
ROMANC
 72
     1
 11
14.725171
 21
0.323738
 31
0.0
  0
TEXT
  8
FORMAT
 62
     3
 10
10.881424
 20
9.665221
 30
0.0
 40
0.12
  1
XXXXXXXXXX
  7
ROMANC
  0
TEXT
  8
FORMAT
 62
     3
 10
12.443557
 20
9.651452
 30
0.0
 40
0.12
  1
1
  7
ROMANC
  0
ENDSEC
  0
EOF
