  0
SECTION
  2
HEADER
  9
$ACADVER
  1
AC1009
  9
$INSBASE
 10
0.0
 20
0.0
 30
0.0
  9
$EXTMIN
 10
0.1
 20
0.149556
 30
0.0
  9
$EXTMAX
 10
20.875
 20
15.829556
 30
0.0
  9
$LIMMIN
 10
0.0
 20
0.0
  9
$LIMMAX
 10
22.0
 20
17.0
  9
$ORTHOMODE
 70
     0
  9
$REGENMODE
 70
     1
  9
$FILLMODE
 70
     1
  9
$QTEXTMODE
 70
     0
  9
$MIRRTEXT
 70
     0
  9
$DRAGMODE
 70
     2
  9
$LTSCALE
 40
1.0
  9
$OSMODE
 70
     0
  9
$ATTMODE
 70
     1
  9
$TEXTSIZE
 40
0.1
  9
$TRACEWID
 40
0.05
  9
$TEXTSTYLE
  7
STANDARD
  9
$CLAYER
  8
0
  9
$CELTYPE
  6
BYLAYER
  9
$CECOLOR
 62
   256
  9
$DIMSCALE
 40
1.0
  9
$DIMASZ
 40
0.125
  9
$DIMEXO
 40
0.06
  9
$DIMDLI
 40
0.5
  9
$DIMRND
 40
0.0
  9
$DIMDLE
 40
0.0
  9
$DIMEXE
 40
0.06
  9
$DIMTP
 40
0.0
  9
$DIMTM
 40
0.0
  9
$DIMTXT
 40
0.125
  9
$DIMCEN
 40
0.06
  9
$DIMTSZ
 40
0.0
  9
$DIMTOL
 70
     0
  9
$DIMLIM
 70
     0
  9
$DIMTIH
 70
     1
  9
$DIMTOH
 70
     1
  9
$DIMSE1
 70
     0
  9
$DIMSE2
 70
     0
  9
$DIMTAD
 70
     0
  9
$DIMZIN
 70
     0
  9
$DIMBLK
  1

  9
$DIMASO
 70
     0
  9
$DIMSHO
 70
     1
  9
$DIMPOST
  1

  9
$DIMAPOST
  1

  9
$DIMALT
 70
     1
  9
$DIMALTD
 70
     2
  9
$DIMALTF
 40
25.4
  9
$DIMLFAC
 40
1.0
  9
$DIMTOFL
 70
     0
  9
$DIMTVP
 40
0.0
  9
$DIMTIX
 70
     0
  9
$DIMSOXD
 70
     0
  9
$DIMSAH
 70
     0
  9
$DIMBLK1
  1

  9
$DIMBLK2
  1

  9
$DIMSTYLE
  2
*UNNAMED
  9
$DIMCLRD
 70
     0
  9
$DIMCLRE
 70
     0
  9
$DIMCLRT
 70
     0
  9
$DIMTFAC
 40
1.0
  9
$DIMGAP
 40
0.09
  9
$LUNITS
 70
     2
  9
$LUPREC
 70
     4
  9
$AXISMODE
 70
     0
  9
$AXISUNIT
 10
0.0
 20
0.0
  9
$SKETCHINC
 40
0.1
  9
$FILLETRAD
 40
0.0
  9
$AUNITS
 70
     0
  9
$AUPREC
 70
     0
  9
$MENU
  1
ACAD
  9
$ELEVATION
 40
0.0
  9
$PELEVATION
 40
0.0
  9
$THICKNESS
 40
0.0
  9
$LIMCHECK
 70
     1
  9
$BLIPMODE
 70
     1
  9
$CHAMFERA
 40
0.0
  9
$CHAMFERB
 40
0.0
  9
$SKPOLY
 70
     0
  9
$TDCREATE
 40
2448359.389549421
  9
$TDUPDATE
 40
2448526.340870138
  9
$TDINDWG
 40
0.0130645833
  9
$TDUSRTIMER
 40
0.0130645833
  9
$USRTIMER
 70
     1
  9
$ANGBASE
 50
0.0
  9
$ANGDIR
 70
     0
  9
$PDMODE
 70
     0
  9
$PDSIZE
 40
0.0
  9
$PLINEWID
 40
0.0
  9
$COORDS
 70
     0
  9
$SPLFRAME
 70
     0
  9
$SPLINETYPE
 70
     6
  9
$SPLINESEGS
 70
     8
  9
$ATTDIA
 70
     0
  9
$ATTREQ
 70
     1
  9
$HANDLING
 70
     0
  9
$HANDSEED
  5
0
  9
$SURFTAB1
 70
     6
  9
$SURFTAB2
 70
     6
  9
$SURFTYPE
 70
     6
  9
$SURFU
 70
     6
  9
$SURFV
 70
     6
  9
$UCSNAME
  2

  9
$UCSORG
 10
0.0
 20
0.0
 30
0.0
  9
$UCSXDIR
 10
1.0
 20
0.0
 30
0.0
  9
$UCSYDIR
 10
0.0
 20
1.0
 30
0.0
  9
$PUCSNAME
  2

  9
$PUCSORG
 10
0.0
 20
0.0
 30
0.0
  9
$PUCSXDIR
 10
1.0
 20
0.0
 30
0.0
  9
$PUCSYDIR
 10
0.0
 20
1.0
 30
0.0
  9
$USERI1
 70
     0
  9
$USERI2
 70
     0
  9
$USERI3
 70
     0
  9
$USERI4
 70
     0
  9
$USERI5
 70
     0
  9
$USERR1
 40
0.0
  9
$USERR2
 40
0.0
  9
$USERR3
 40
0.0
  9
$USERR4
 40
0.0
  9
$USERR5
 40
0.0
  9
$WORLDVIEW
 70
     0
  9
$SHADEDGE
 70
     3
  9
$SHADEDIF
 70
    70
  9
$TILEMODE
 70
     1
  9
$MAXACTVP
 70
    16
  9
$PINSBASE
 10
0.0
 20
0.0
 30
0.0
  9
$PLIMCHECK
 70
     0
  9
$PEXTMIN
 10
1.000000E+20
 20
1.000000E+20
 30
1.000000E+20
  9
$PEXTMAX
 10
-1.000000E+20
 20
-1.000000E+20
 30
-1.000000E+20
  9
$PLIMMIN
 10
0.0
 20
0.0
  9
$PLIMMAX
 10
12.0
 20
9.0
  9
$UNITMODE
 70
     0
  9
$VISRETAIN
 70
     0
  0
ENDSEC
  0
SECTION
  2
TABLES
  0
TABLE
  2
VPORT
 70
     2
  0
VPORT
  2
*ACTIVE
 70
     0
 10
0.0
 20
0.0
 11
1.0
 21
1.0
 12
13.635945
 22
8.5
 13
0.0
 23
0.0
 14
1.0
 24
1.0
 15
0.0
 25
0.0
 16
0.0
 26
0.0
 36
1.0
 17
0.0
 27
0.0
 37
0.0
 40
17.0
 41
1.604229
 42
50.0
 43
0.0
 44
0.0
 50
0.0
 51
0.0
 71
     0
 72
   100
 73
     1
 74
     1
 75
     0
 76
     0
 77
     0
 78
     0
  0
ENDTAB
  0
TABLE
  2
LTYPE
 70
    25
  0
LTYPE
  2
CONTINUOUS
 70
    64
  3
Solid line
 72
    65
 73
     0
 40
0.0
  0
LTYPE
  2
CENTER
 70
    64
  3
____ _ ____ _ ____ _ ____ _ ____ _ ____ _ ____ 
 72
    65
 73
     4
 40
2.0
 49
1.25
 49
-0.25
 49
0.25
 49
-0.25
  0
LTYPE
  2
PHANTOM
 70
    64
  3
______  __  __  ______  __  __  ______  __  __ 
 72
    65
 73
     6
 40
2.5
 49
1.25
 49
-0.25
 49
0.25
 49
-0.25
 49
0.25
 49
-0.25
  0
LTYPE
  2
HIDDEN
 70
    64
  3
__ __ __ __ __ __ __ __ __ __ __ __ __ __ __ __
 72
    65
 73
     2
 40
0.375
 49
0.25
 49
-0.125
  0
ENDTAB
  0
TABLE
  2
LAYER
 70
     9
  0
LAYER
  2
0
 70
    64
 62
     7
  6
CONTINUOUS
  0
LAYER
  2
LETTER
 70
    64
 62
     3
  6
CONTINUOUS
  0
ENDTAB
  0
TABLE
  2
STYLE
 70
     3
  0
STYLE
  2
STANDARD
 70
    64
 40
0.0
 41
1.0
 50
0.0
 71
     0
 42
0.1
  3
COMPLEX
  4

  0
STYLE
  2
ROMANT
 70
    64
 40
0.225
 41
1.0
 50
0.0
 71
     0
 42
0.225
  3
romant
  4

  0
ENDTAB
  0
TABLE
  2
VIEW
 70
     0
  0
ENDTAB
  0
TABLE
  2
UCS
 70
     0
  0
ENDTAB
  0
TABLE
  2
APPID
 70
     1
  0
APPID
  2
ACAD
 70
    64
  0
ENDTAB
  0
TABLE
  2
DIMSTYLE
 70
     0
  0
ENDTAB
  0
ENDSEC
  0
SECTION
  2
BLOCKS
  0
BLOCK
  8
0
  2
TBLKLOGO
 70
    64
 10
0.0
 20
0.0
 30
0.0
  3
TBLKLOGO
  0
ENDBLK
  8
0
  0
BLOCK
  8
0
  2
*X2
 70
    65
 10
0.0
 20
0.0
 30
0.0
  3
*X
  0
LINE
  8
0
 62
     0
 10
5.089738
 20
4.0875
 30
0.0
 11
5.335535
 21
4.0875
 31
0.0
  0
LINE
  8
0
 62
     0
 10
5.089865
 20
4.095
 30
0.0
 11
5.335408
 21
4.095
 31
0.0
  0
LINE
  8
0
 62
     0
 10
5.094195
 20
4.1025
 30
0.0
 11
5.331078
 21
4.1025
 31
0.0
  0
LINE
  8
0
 62
     0
 10
5.098525
 20
4.11
 30
0.0
 11
5.326748
 21
4.11
 31
0.0
  0
LINE
  8
0
 62
     0
 10
5.102855
 20
4.1175
 30
0.0
 11
5.322418
 21
4.1175
 31
0.0
  0
LINE
  8
0
 62
     0
 10
5.107185
 20
4.125
 30
0.0
 11
5.318088
 21
4.125
 31
0.0
  0
LINE
  8
0
 62
     0
 10
5.111515
 20
4.1325
 30
0.0
 11
5.313757
 21
4.1325
 31
0.0
  0
LINE
  8
0
 62
     0
 10
5.115845
 20
4.14
 30
0.0
 11
5.309427
 21
4.14
 31
0.0
  0
LINE
  8
0
 62
     0
 10
5.120176
 20
4.1475
 30
0.0
 11
5.305097
 21
4.1475
 31
0.0
  0
LINE
  8
0
 62
     0
 10
5.124506
 20
4.155
 30
0.0
 11
5.300767
 21
4.155
 31
0.0
  0
LINE
  8
0
 62
     0
 10
5.128836
 20
4.1625
 30
0.0
 11
5.296437
 21
4.1625
 31
0.0
  0
LINE
  8
0
 62
     0
 10
5.133166
 20
4.17
 30
0.0
 11
5.292107
 21
4.17
 31
0.0
  0
LINE
  8
0
 62
     0
 10
5.137496
 20
4.1775
 30
0.0
 11
5.287777
 21
4.1775
 31
0.0
  0
LINE
  8
0
 62
     0
 10
5.141826
 20
4.185
 30
0.0
 11
5.283447
 21
4.185
 31
0.0
  0
LINE
  8
0
 62
     0
 10
5.146156
 20
4.1925
 30
0.0
 11
5.279116
 21
4.1925
 31
0.0
  0
LINE
  8
0
 62
     0
 10
5.150486
 20
4.2
 30
0.0
 11
5.274786
 21
4.2
 31
0.0
  0
LINE
  8
0
 62
     0
 10
5.154817
 20
4.2075
 30
0.0
 11
5.270456
 21
4.2075
 31
0.0
  0
LINE
  8
0
 62
     0
 10
5.159147
 20
4.215
 30
0.0
 11
5.266126
 21
4.215
 31
0.0
  0
LINE
  8
0
 62
     0
 10
5.163477
 20
4.2225
 30
0.0
 11
5.261796
 21
4.2225
 31
0.0
  0
LINE
  8
0
 62
     0
 10
5.167807
 20
4.23
 30
0.0
 11
5.257466
 21
4.23
 31
0.0
  0
LINE
  8
0
 62
     0
 10
5.172137
 20
4.2375
 30
0.0
 11
5.253136
 21
4.2375
 31
0.0
  0
LINE
  8
0
 62
     0
 10
5.176467
 20
4.245
 30
0.0
 11
5.248806
 21
4.245
 31
0.0
  0
LINE
  8
0
 62
     0
 10
5.180797
 20
4.2525
 30
0.0
 11
5.244475
 21
4.2525
 31
0.0
  0
LINE
  8
0
 62
     0
 10
5.185127
 20
4.26
 30
0.0
 11
5.240145
 21
4.26
 31
0.0
  0
LINE
  8
0
 62
     0
 10
5.189458
 20
4.2675
 30
0.0
 11
5.235815
 21
4.2675
 31
0.0
  0
LINE
  8
0
 62
     0
 10
5.193788
 20
4.275
 30
0.0
 11
5.231485
 21
4.275
 31
0.0
  0
LINE
  8
0
 62
     0
 10
5.198118
 20
4.2825
 30
0.0
 11
5.227155
 21
4.2825
 31
0.0
  0
LINE
  8
0
 62
     0
 10
5.202448
 20
4.29
 30
0.0
 11
5.222825
 21
4.29
 31
0.0
  0
LINE
  8
0
 62
     0
 10
5.206778
 20
4.2975
 30
0.0
 11
5.218495
 21
4.2975
 31
0.0
  0
LINE
  8
0
 62
     0
 10
5.211108
 20
4.305
 30
0.0
 11
5.214164
 21
4.305
 31
0.0
  0
LINE
  8
0
 62
     0
 10
5.094068
 20
4.08
 30
0.0
 11
5.331204
 21
4.08
 31
0.0
  0
LINE
  8
0
 62
     0
 10
5.098398
 20
4.0725
 30
0.0
 11
5.326874
 21
4.0725
 31
0.0
  0
LINE
  8
0
 62
     0
 10
5.102729
 20
4.065
 30
0.0
 11
5.322544
 21
4.065
 31
0.0
  0
LINE
  8
0
 62
     0
 10
5.107059
 20
4.0575
 30
0.0
 11
5.318214
 21
4.0575
 31
0.0
  0
LINE
  8
0
 62
     0
 10
5.111389
 20
4.05
 30
0.0
 11
5.313884
 21
4.05
 31
0.0
  0
LINE
  8
0
 62
     0
 10
5.115719
 20
4.0425
 30
0.0
 11
5.309554
 21
4.0425
 31
0.0
  0
LINE
  8
0
 62
     0
 10
5.120049
 20
4.035
 30
0.0
 11
5.305224
 21
4.035
 31
0.0
  0
LINE
  8
0
 62
     0
 10
5.124379
 20
4.0275
 30
0.0
 11
5.300894
 21
4.0275
 31
0.0
  0
LINE
  8
0
 62
     0
 10
5.128709
 20
4.02
 30
0.0
 11
5.296563
 21
4.02
 31
0.0
  0
LINE
  8
0
 62
     0
 10
5.133039
 20
4.0125
 30
0.0
 11
5.292233
 21
4.0125
 31
0.0
  0
LINE
  8
0
 62
     0
 10
5.13737
 20
4.005
 30
0.0
 11
5.287903
 21
4.005
 31
0.0
  0
LINE
  8
0
 62
     0
 10
5.1417
 20
3.9975
 30
0.0
 11
5.283573
 21
3.9975
 31
0.0
  0
LINE
  8
0
 62
     0
 10
5.14603
 20
3.99
 30
0.0
 11
5.279243
 21
3.99
 31
0.0
  0
LINE
  8
0
 62
     0
 10
5.15036
 20
3.9825
 30
0.0
 11
5.274913
 21
3.9825
 31
0.0
  0
LINE
  8
0
 62
     0
 10
5.15469
 20
3.975
 30
0.0
 11
5.270583
 21
3.975
 31
0.0
  0
LINE
  8
0
 62
     0
 10
5.15902
 20
3.9675
 30
0.0
 11
5.266252
 21
3.9675
 31
0.0
  0
LINE
  8
0
 62
     0
 10
5.16335
 20
3.96
 30
0.0
 11
5.261922
 21
3.96
 31
0.0
  0
LINE
  8
0
 62
     0
 10
5.16768
 20
3.9525
 30
0.0
 11
5.257592
 21
3.9525
 31
0.0
  0
LINE
  8
0
 62
     0
 10
5.172011
 20
3.945
 30
0.0
 11
5.253262
 21
3.945
 31
0.0
  0
LINE
  8
0
 62
     0
 10
5.176341
 20
3.9375
 30
0.0
 11
5.248932
 21
3.9375
 31
0.0
  0
LINE
  8
0
 62
     0
 10
5.180671
 20
3.93
 30
0.0
 11
5.244602
 21
3.93
 31
0.0
  0
LINE
  8
0
 62
     0
 10
5.185001
 20
3.9225
 30
0.0
 11
5.240272
 21
3.9225
 31
0.0
  0
LINE
  8
0
 62
     0
 10
5.189331
 20
3.915
 30
0.0
 11
5.235942
 21
3.915
 31
0.0
  0
LINE
  8
0
 62
     0
 10
5.193661
 20
3.9075
 30
0.0
 11
5.231611
 21
3.9075
 31
0.0
  0
LINE
  8
0
 62
     0
 10
5.197991
 20
3.9
 30
0.0
 11
5.227281
 21
3.9
 31
0.0
  0
LINE
  8
0
 62
     0
 10
5.202321
 20
3.8925
 30
0.0
 11
5.222951
 21
3.8925
 31
0.0
  0
LINE
  8
0
 62
     0
 10
5.206652
 20
3.885
 30
0.0
 11
5.218621
 21
3.885
 31
0.0
  0
LINE
  8
0
 62
     0
 10
5.210982
 20
3.8775
 30
0.0
 11
5.214291
 21
3.8775
 31
0.0
  0
ENDBLK
  8
0
  0
BLOCK
  8
0
  2
*X3
 70
    65
 10
0.0
 20
0.0
 30
0.0
  3
*X
  0
LINE
  8
0
 62
     0
 10
4.899339
 20
3.765
 30
0.0
 11
5.149339
 21
3.765
 31
0.0
  0
LINE
  8
0
 62
     0
 10
4.903669
 20
3.7725
 30
0.0
 11
5.153669
 21
3.7725
 31
0.0
  0
LINE
  8
0
 62
     0
 10
4.907999
 20
3.78
 30
0.0
 11
5.157999
 21
3.78
 31
0.0
  0
LINE
  8
0
 62
     0
 10
4.912329
 20
3.7875
 30
0.0
 11
5.162329
 21
3.7875
 31
0.0
  0
LINE
  8
0
 62
     0
 10
4.91666
 20
3.795
 30
0.0
 11
5.16666
 21
3.795
 31
0.0
  0
LINE
  8
0
 62
     0
 10
4.92099
 20
3.8025
 30
0.0
 11
5.17099
 21
3.8025
 31
0.0
  0
LINE
  8
0
 62
     0
 10
4.92532
 20
3.81
 30
0.0
 11
5.17532
 21
3.81
 31
0.0
  0
LINE
  8
0
 62
     0
 10
4.92965
 20
3.8175
 30
0.0
 11
5.17965
 21
3.8175
 31
0.0
  0
LINE
  8
0
 62
     0
 10
4.93398
 20
3.825
 30
0.0
 11
5.18398
 21
3.825
 31
0.0
  0
LINE
  8
0
 62
     0
 10
4.93831
 20
3.8325
 30
0.0
 11
5.18831
 21
3.8325
 31
0.0
  0
LINE
  8
0
 62
     0
 10
4.94264
 20
3.84
 30
0.0
 11
5.19264
 21
3.84
 31
0.0
  0
LINE
  8
0
 62
     0
 10
4.94697
 20
3.8475
 30
0.0
 11
5.19697
 21
3.8475
 31
0.0
  0
LINE
  8
0
 62
     0
 10
4.951301
 20
3.855
 30
0.0
 11
5.201301
 21
3.855
 31
0.0
  0
LINE
  8
0
 62
     0
 10
4.955631
 20
3.8625
 30
0.0
 11
5.205631
 21
3.8625
 31
0.0
  0
LINE
  8
0
 62
     0
 10
4.959961
 20
3.87
 30
0.0
 11
5.209961
 21
3.87
 31
0.0
  0
LINE
  8
0
 62
     0
 10
4.895009
 20
3.7575
 30
0.0
 11
5.145009
 21
3.7575
 31
0.0
  0
LINE
  8
0
 62
     0
 10
4.890679
 20
3.75
 30
0.0
 11
5.140679
 21
3.75
 31
0.0
  0
LINE
  8
0
 62
     0
 10
4.886349
 20
3.7425
 30
0.0
 11
5.136349
 21
3.7425
 31
0.0
  0
LINE
  8
0
 62
     0
 10
4.882019
 20
3.735
 30
0.0
 11
5.132019
 21
3.735
 31
0.0
  0
LINE
  8
0
 62
     0
 10
4.877688
 20
3.7275
 30
0.0
 11
5.127688
 21
3.7275
 31
0.0
  0
LINE
  8
0
 62
     0
 10
4.873358
 20
3.72
 30
0.0
 11
5.123358
 21
3.72
 31
0.0
  0
LINE
  8
0
 62
     0
 10
4.869028
 20
3.7125
 30
0.0
 11
5.119028
 21
3.7125
 31
0.0
  0
LINE
  8
0
 62
     0
 10
4.864698
 20
3.705
 30
0.0
 11
5.114698
 21
3.705
 31
0.0
  0
LINE
  8
0
 62
     0
 10
4.860368
 20
3.6975
 30
0.0
 11
5.110368
 21
3.6975
 31
0.0
  0
LINE
  8
0
 62
     0
 10
4.856038
 20
3.69
 30
0.0
 11
5.106038
 21
3.69
 31
0.0
  0
LINE
  8
0
 62
     0
 10
4.851708
 20
3.6825
 30
0.0
 11
5.101708
 21
3.6825
 31
0.0
  0
LINE
  8
0
 62
     0
 10
4.847378
 20
3.675
 30
0.0
 11
5.097378
 21
3.675
 31
0.0
  0
LINE
  8
0
 62
     0
 10
4.843047
 20
3.6675
 30
0.0
 11
5.093047
 21
3.6675
 31
0.0
  0
LINE
  8
0
 62
     0
 10
4.838717
 20
3.66
 30
0.0
 11
5.088717
 21
3.66
 31
0.0
  0
ENDBLK
  8
0
  0
BLOCK
  8
0
  2
*X4
 70
    65
 10
0.0
 20
0.0
 30
0.0
  3
*X
  0
LINE
  8
0
 62
     0
 10
5.275934
 20
3.765
 30
0.0
 11
5.525934
 21
3.765
 31
0.0
  0
LINE
  8
0
 62
     0
 10
5.271604
 20
3.7725
 30
0.0
 11
5.521604
 21
3.7725
 31
0.0
  0
LINE
  8
0
 62
     0
 10
5.267273
 20
3.78
 30
0.0
 11
5.517273
 21
3.78
 31
0.0
  0
LINE
  8
0
 62
     0
 10
5.262943
 20
3.7875
 30
0.0
 11
5.512943
 21
3.7875
 31
0.0
  0
LINE
  8
0
 62
     0
 10
5.258613
 20
3.795
 30
0.0
 11
5.508613
 21
3.795
 31
0.0
  0
LINE
  8
0
 62
     0
 10
5.254283
 20
3.8025
 30
0.0
 11
5.504283
 21
3.8025
 31
0.0
  0
LINE
  8
0
 62
     0
 10
5.249953
 20
3.81
 30
0.0
 11
5.499953
 21
3.81
 31
0.0
  0
LINE
  8
0
 62
     0
 10
5.245623
 20
3.8175
 30
0.0
 11
5.495623
 21
3.8175
 31
0.0
  0
LINE
  8
0
 62
     0
 10
5.241293
 20
3.825
 30
0.0
 11
5.491293
 21
3.825
 31
0.0
  0
LINE
  8
0
 62
     0
 10
5.236962
 20
3.8325
 30
0.0
 11
5.486962
 21
3.8325
 31
0.0
  0
LINE
  8
0
 62
     0
 10
5.232632
 20
3.84
 30
0.0
 11
5.482632
 21
3.84
 31
0.0
  0
LINE
  8
0
 62
     0
 10
5.228302
 20
3.8475
 30
0.0
 11
5.478302
 21
3.8475
 31
0.0
  0
LINE
  8
0
 62
     0
 10
5.223972
 20
3.855
 30
0.0
 11
5.473972
 21
3.855
 31
0.0
  0
LINE
  8
0
 62
     0
 10
5.219642
 20
3.8625
 30
0.0
 11
5.469642
 21
3.8625
 31
0.0
  0
LINE
  8
0
 62
     0
 10
5.215312
 20
3.87
 30
0.0
 11
5.465312
 21
3.87
 31
0.0
  0
LINE
  8
0
 62
     0
 10
5.280264
 20
3.7575
 30
0.0
 11
5.530264
 21
3.7575
 31
0.0
  0
LINE
  8
0
 62
     0
 10
5.284594
 20
3.75
 30
0.0
 11
5.534594
 21
3.75
 31
0.0
  0
LINE
  8
0
 62
     0
 10
5.288924
 20
3.7425
 30
0.0
 11
5.538924
 21
3.7425
 31
0.0
  0
LINE
  8
0
 62
     0
 10
5.293254
 20
3.735
 30
0.0
 11
5.543254
 21
3.735
 31
0.0
  0
LINE
  8
0
 62
     0
 10
5.297584
 20
3.7275
 30
0.0
 11
5.547584
 21
3.7275
 31
0.0
  0
LINE
  8
0
 62
     0
 10
5.301914
 20
3.72
 30
0.0
 11
5.551914
 21
3.72
 31
0.0
  0
LINE
  8
0
 62
     0
 10
5.306245
 20
3.7125
 30
0.0
 11
5.556245
 21
3.7125
 31
0.0
  0
LINE
  8
0
 62
     0
 10
5.310575
 20
3.705
 30
0.0
 11
5.560575
 21
3.705
 31
0.0
  0
LINE
  8
0
 62
     0
 10
5.314905
 20
3.6975
 30
0.0
 11
5.564905
 21
3.6975
 31
0.0
  0
LINE
  8
0
 62
     0
 10
5.319235
 20
3.69
 30
0.0
 11
5.569235
 21
3.69
 31
0.0
  0
LINE
  8
0
 62
     0
 10
5.323565
 20
3.6825
 30
0.0
 11
5.573565
 21
3.6825
 31
0.0
  0
LINE
  8
0
 62
     0
 10
5.327895
 20
3.675
 30
0.0
 11
5.577895
 21
3.675
 31
0.0
  0
LINE
  8
0
 62
     0
 10
5.332225
 20
3.6675
 30
0.0
 11
5.582225
 21
3.6675
 31
0.0
  0
LINE
  8
0
 62
     0
 10
5.336555
 20
3.66
 30
0.0
 11
5.586555
 21
3.66
 31
0.0
  0
ENDBLK
  8
0
  0
ENDSEC
  0
SECTION
  2
ENTITIES
  0
LINE
  8
0
 62
     7
 10
20.475
 20
3.730992
 30
0.0
 11
20.85
 21
3.730992
 31
0.0
  0
LINE
  8
0
 62
     7
 10
20.475
 20
11.677056
 30
0.0
 11
20.875
 21
11.677056
 31
0.0
  0
TEXT
  8
0
 62
     7
 10
20.647857
 20
2.283119
 30
0.0
 40
0.18
  1
A
 72
     4
 11
20.725
 21
2.373119
 31
0.0
  0
TEXT
  8
0
 62
     7
 10
20.635
 20
9.742019
 30
0.0
 40
0.18
  1
C
 72
     4
 11
20.725
 21
9.832019
 31
0.0
  0
TEXT
  8
0
 62
     7
 10
20.630714
 20
13.625582
 30
0.0
 40
0.18
  1
D
 72
     4
 11
20.725
 21
13.715582
 31
0.0
  0
SOLID
  8
LETTER
 62
     3
 10
20.475
 20
7.989556
 30
0.0
 11
20.675
 21
8.089556
 31
0.0
 12
20.675
 22
7.889556
 32
0.0
 13
20.675
 23
7.889556
 33
0.0
  0
LINE
  8
0
 62
     7
 10
20.675
 20
7.989556
 30
0.0
 11
20.875
 21
7.989556
 31
0.0
  0
LINE
  8
0
 62
     7
 10
0.3
 20
7.989556
 30
0.0
 11
0.1
 21
7.989556
 31
0.0
  0
SOLID
  8
LETTER
 62
     3
 10
0.5
 20
7.989556
 30
0.0
 11
0.3
 21
8.089556
 31
0.0
 12
0.3
 22
7.889556
 32
0.0
 13
0.3
 23
7.889556
 33
0.0
  0
TEXT
  8
0
 62
     7
 10
0.224286
 20
13.570787
 30
0.0
 40
0.18
  1
D
 72
     4
 11
0.25
 21
13.660787
 31
0.0
  0
TEXT
  8
0
 62
     7
 10
0.211429
 20
9.687224
 30
0.0
 40
0.18
  1
C
 72
     4
 11
0.25
 21
9.777224
 31
0.0
  0
TEXT
  8
0
 62
     7
 10
0.19
 20
2.283119
 30
0.0
 40
0.18
  1
A
 72
     4
 11
0.25
 21
2.373119
 31
0.0
  0
LINE
  8
0
 62
     7
 10
0.5
 20
11.677056
 30
0.0
 11
0.1
 21
11.677056
 31
0.0
  0
LINE
  8
0
 62
     7
 10
0.5
 20
4.302056
 30
0.0
 11
0.1
 21
4.302056
 31
0.0
  0
TEXT
  8
0
 62
     7
 10
0.155714
 20
6.149556
 30
0.0
 40
0.18
  1
B
 72
     4
 11
0.25
 21
6.239556
 31
0.0
  0
LINE
  8
0
 62
     7
 10
15.475
 20
0.614556
 30
0.0
 11
15.475
 21
0.214556
 31
0.0
  0
LINE
  8
0
 62
     7
 10
5.49375
 20
0.614556
 30
0.0
 11
5.49375
 21
0.214556
 31
0.0
  0
TEXT
  8
0
 62
     7
 10
18.017523
 20
0.149556
 30
0.0
 40
0.18
  1
1
 72
     4
 11
18.09038
 21
0.239556
 31
0.0
  0
TEXT
  8
0
 62
     7
 10
12.863653
 20
0.149556
 30
0.0
 40
0.18
  1
2
 72
     4
 11
12.949367
 21
0.239556
 31
0.0
  0
TEXT
  8
0
 62
     7
 10
7.947006
 20
0.149556
 30
0.0
 40
0.18
  1
3
 72
     4
 11
8.032721
 21
0.239556
 31
0.0
  0
TEXT
  8
0
 62
     7
 10
2.891454
 20
0.149556
 30
0.0
 40
0.18
  1
4
 72
     4
 11
2.981454
 21
0.239556
 31
0.0
  0
SOLID
  8
LETTER
 62
     3
 10
10.4875
 20
0.614556
 30
0.0
 11
10.3875
 21
0.414556
 31
0.0
 12
10.5875
 22
0.414556
 32
0.0
 13
10.5875
 23
0.414556
 33
0.0
  0
LINE
  8
0
 62
     7
 10
10.4875
 20
0.414556
 30
0.0
 11
10.4875
 21
0.214556
 31
0.0
  0
LINE
  8
0
 62
     7
 10
10.4875
 20
15.564556
 30
0.0
 11
10.4875
 21
15.764556
 31
0.0
  0
SOLID
  8
LETTER
 62
     3
 10
10.4875
 20
15.364556
 30
0.0
 11
10.3875
 21
15.564556
 31
0.0
 12
10.5875
 22
15.564556
 32
0.0
 13
10.5875
 23
15.564556
 33
0.0
  0
TEXT
  8
0
 62
     7
 10
2.846581
 20
15.649556
 30
0.0
 40
0.18
  1
4
 72
     4
 11
2.936581
 21
15.739556
 31
0.0
  0
TEXT
  8
0
 62
     7
 10
8.036753
 20
15.649556
 30
0.0
 40
0.18
  1
3
 72
     4
 11
8.122467
 21
15.739556
 31
0.0
  0
TEXT
  8
0
 62
     7
 10
12.863653
 20
15.649556
 30
0.0
 40
0.18
  1
2
 72
     4
 11
12.949367
 21
15.739556
 31
0.0
  0
TEXT
  8
0
 62
     7
 10
17.748283
 20
15.649556
 30
0.0
 40
0.18
  1
1
 72
     4
 11
17.82114
 21
15.739556
 31
0.0
  0
LINE
  8
0
 62
     7
 10
5.49375
 20
15.364556
 30
0.0
 11
5.49375
 21
15.764556
 31
0.0
  0
LINE
  8
0
 62
     7
 10
15.475
 20
15.364556
 30
0.0
 11
15.475
 21
15.764556
 31
0.0
  0
LINE
  8
0
 62
     7
 10
14.975
 20
14.864556
 30
0.0
 11
20.475
 21
14.864556
 31
0.0
  0
LINE
  8
0
 62
     7
 10
15.475
 20
15.114556
 30
0.0
 11
15.475
 21
14.614556
 31
0.0
  0
LINE
  8
0
 62
     7
 10
14.975
 20
15.364556
 30
0.0
 11
14.975
 21
14.614556
 31
0.0
  0
LINE
  8
0
 62
     7
 10
14.975
 20
15.114556
 30
0.0
 11
20.475
 21
15.114556
 31
0.0
  0
LINE
  8
0
 62
     7
 10
15.85
 20
15.114556
 30
0.0
 11
15.85
 21
14.614556
 31
0.0
  0
LINE
  8
0
 62
     7
 10
19.475
 20
14.614556
 30
0.0
 11
19.475
 21
15.114556
 31
0.0
  0
LINE
  8
0
 62
     7
 10
18.6
 20
14.614556
 30
0.0
 11
18.6
 21
15.114556
 31
0.0
  0
TEXT
  8
LETTER
 62
     3
 10
15.078333
 20
14.949556
 30
0.0
 40
0.08
  1
ZONE
 72
     4
 11
15.225
 21
14.989556
 31
0.0
  0
TEXT
  8
LETTER
 62
     3
 10
15.5425
 20
14.949556
 30
0.0
 40
0.08
  1
REV
 72
     4
 11
15.6625
 21
14.989556
 31
0.0
  0
TEXT
  8
LETTER
 62
     3
 10
18.890833
 20
14.949556
 30
0.0
 40
0.08
  1
DATE
 72
     4
 11
19.0375
 21
14.989556
 31
0.0
  0
TEXT
  8
LETTER
 62
     3
 10
19.655
 20
14.949556
 30
0.0
 40
0.08
  1
APPROVED
 72
     4
 11
19.975
 21
14.989556
 31
0.0
  0
TEXT
  8
LETTER
 62
     3
 10
17.422143
 20
15.199556
 30
0.0
 40
0.08
  1
REVISIONS
 72
     4
 11
17.725
 21
15.239556
 31
0.0
  0
TEXT
  8
LETTER
 62
     3
 10
16.825
 20
14.949556
 30
0.0
 40
0.08
  1
DESCRIPTION
 72
     4
 11
17.225
 21
14.989556
 31
0.0
  0
LINE
  8
0
 62
     7
 10
20.475
 20
2.364556
 30
0.0
 11
12.225043
 21
2.364556
 31
0.0
  0
LINE
  8
0
 62
     7
 10
16.225
 20
0.614556
 30
0.0
 11
16.225
 21
2.364556
 31
0.0
  0
LINE
  8
0
 62
     7
 10
9.725043
 20
0.864556
 30
0.0
 11
20.475
 21
0.864556
 31
0.0
  0
LINE
  8
0
 62
     7
 10
16.225
 20
1.239556
 30
0.0
 11
20.475
 21
1.239556
 31
0.0
  0
LINE
  8
0
 62
     7
 10
14.225
 20
1.864556
 30
0.0
 11
20.475
 21
1.864556
 31
0.0
  0
LINE
  8
0
 62
     7
 10
18.725
 20
0.614556
 30
0.0
 11
18.725
 21
0.864556
 31
0.0
  0
LINE
  8
0
 62
     7
 10
17.225
 20
0.614556
 30
0.0
 11
17.225
 21
0.864556
 31
0.0
  0
LINE
  8
0
 62
     7
 10
20.1
 20
0.864556
 30
0.0
 11
20.1
 21
1.239556
 31
0.0
  0
LINE
  8
0
 62
     7
 10
16.6
 20
0.864556
 30
0.0
 11
16.6
 21
1.239556
 31
0.0
  0
LINE
  8
0
 62
     7
 10
17.85
 20
0.864556
 30
0.0
 11
17.85
 21
1.239556
 31
0.0
  0
TEXT
  8
LETTER
 62
     3
 10
12.265043
 20
1.139556
 30
0.0
 40
0.06
  1
FINISH
  0
TEXT
  8
LETTER
 62
     3
 10
12.265043
 20
1.514556
 30
0.0
 40
0.06
  1
MATERIAL
  0
LINE
  8
0
 62
     7
 10
14.225
 20
0.614556
 30
0.0
 11
14.225
 21
2.364556
 31
0.0
  0
TEXT
  8
LETTER
 62
     3
 10
14.265
 20
2.264556
 30
0.0
 40
0.06
  1
BOM #:
  0
TEXT
  8
LETTER
 62
     3
 10
14.265
 20
1.014556
 30
0.0
 40
0.06
  1
ISSUED
  0
TEXT
  8
LETTER
 62
     3
 10
14.265
 20
1.264556
 30
0.0
 40
0.06
  1
CHECKED
  0
TEXT
  8
LETTER
 62
     3
 10
14.265
 20
1.514556
 30
0.0
 40
0.06
  1
DRAWN
  0
TEXT
  8
LETTER
 62
     3
 10
14.726429
 20
1.70142
 30
0.0
 40
0.06
  1
APPROVALS
 72
     4
 11
14.975
 21
1.73142
 31
0.0
  0
TEXT
  8
LETTER
 62
     3
 10
15.866429
 20
1.70142
 30
0.0
 40
0.06
  1
DATE
 72
     4
 11
15.975
 21
1.73142
 31
0.0
  0
LINE
  8
0
 62
     7
 10
15.725
 20
1.864556
 30
0.0
 11
15.725
 21
0.614556
 31
0.0
  0
LINE
  8
0
 62
     7
 10
12.225043
 20
1.614556
 30
0.0
 11
16.225
 21
1.614556
 31
0.0
  0
LINE
  8
0
 62
     7
 10
14.225
 20
1.364556
 30
0.0
 11
16.225
 21
1.364556
 31
0.0
  0
LINE
  8
0
 62
     7
 10
14.225
 20
1.114556
 30
0.0
 11
16.225
 21
1.114556
 31
0.0
  0
LINE
  8
0
 62
     7
 10
12.225043
 20
0.614556
 30
0.0
 11
12.225043
 21
3.239556
 31
0.0
  0
LINE
  8
0
 62
     7
 10
9.725043
 20
0.614556
 30
0.0
 11
9.725043
 21
1.864556
 31
0.0
  0
LINE
  8
0
 62
     7
 10
10.975043
 20
1.864556
 30
0.0
 11
10.975043
 21
0.864556
 31
0.0
  0
TEXT
  8
LETTER
 62
     3
 10
10.615043
 20
0.699556
 30
0.0
 40
0.08
  1
APPLICATION
 72
     4
 11
10.975043
 21
0.739556
 31
0.0
  0
TEXT
  8
LETTER
 62
     3
 10
12.468831
 20
0.699556
 30
0.0
 40
0.08
  1
DO NOT SCALE DRAWING
 72
     4
 11
13.225021
 21
0.739556
 31
0.0
  0
TEXT
  8
LETTER
 62
     3
 10
16.315357
 20
1.139554
 30
0.0
 40
0.06
  1
SIZE
 72
     1
 11
16.4125
 21
1.139554
 31
0.0
  0
TEXT
  8
LETTER
 62
     3
 10
16.64
 20
1.139556
 30
0.0
 40
0.06
  1
FSCM NO.
  0
TEXT
  8
LETTER
 62
     3
 10
17.89
 20
1.139556
 30
0.0
 40
0.06
  1
DWG NO.
  0
TEXT
  8
LETTER
 62
     3
 10
20.200357
 20
1.139556
 30
0.0
 40
0.06
  1
REV
 72
     1
 11
20.2875
 21
1.139556
 31
0.0
  0
TEXT
  8
LETTER
 62
     3
 10
16.267451
 20
0.709543
 30
0.0
 40
0.06
  1
SCALE
  0
TEXT
  8
LETTER
 62
     3
 10
18.767451
 20
0.709543
 30
0.0
 40
0.06
  1
SHEET
  0
TEXT
  8
0
 62
     7
 10
16.3225
 20
0.911205
 30
0.0
 40
0.18
  1
C
 72
     4
 11
16.4125
 21
1.001205
 31
0.0
  0
LINE
  8
0
 62
     7
 10
20.475
 20
4.230992
 30
0.0
 11
20.85
 21
4.230992
 31
0.0
  0
LINE
  8
0
 62
     7
 10
20.85
 20
3.730992
 30
0.0
 11
20.85
 21
7.480992
 31
0.0
  0
LINE
  8
0
 62
     7
 10
20.85
 20
7.480992
 30
0.0
 11
20.475
 21
7.480992
 31
0.0
  0
LINE
  8
0
 62
     7
 10
20.475
 20
4.730992
 30
0.0
 11
20.85
 21
4.730992
 31
0.0
  0
TEXT
  8
LETTER
 62
     3
 10
20.72
 20
7.430992
 30
0.0
 40
0.08
  1
DWG NO.
 50
270.0
  0
TEXT
  8
LETTER
 62
     3
 10
20.72
 20
4.680992
 30
0.0
 40
0.08
  1
SH
 50
270.0
  0
TEXT
  8
LETTER
 62
     3
 10
20.72
 20
4.180992
 30
0.0
 40
0.08
  1
REV
 50
270.0
  0
LINE
  8
0
 62
     7
 10
12.225043
 20
1.239556
 30
0.0
 11
14.225
 21
1.239556
 31
0.0
  0
TEXT
  8
LETTER
 62
     3
 10
12.265043
 20
2.264556
 30
0.0
 40
0.06
  1
UNLESS OTHERWISE SPECIFIED
  0
TEXT
  8
LETTER
 62
     3
 10
12.265043
 20
2.164556
 30
0.0
 40
0.06
  1
DIMENSIONS ARE IN INCHES
  0
TEXT
  8
LETTER
 62
     3
 10
12.265043
 20
2.064556
 30
0.0
 40
0.06
  1
TOLERANCES ARE:
  0
TEXT
  8
LETTER
 62
     3
 10
12.2877
 20
1.914556
 30
0.0
 40
0.06
  1
FRACTIONS     DECIMALS    ANGLES
  0
TEXT
  8
LETTER
 62
     3
 10
10.615043
 20
0.699556
 30
0.0
 40
0.08
  1
APPLICATION
 72
     4
 11
10.975043
 21
0.739556
 31
0.0
  0
TEXT
  8
LETTER
 62
     3
 10
11.390043
 20
0.959556
 30
0.0
 40
0.06
  1
USED ON
 72
     4
 11
11.600043
 21
0.989556
 31
0.0
  0
TEXT
  8
LETTER
 62
     3
 10
10.097186
 20
0.959556
 30
0.0
 40
0.06
  1
NEXT ASSY
 72
     4
 11
10.350043
 21
0.989556
 31
0.0
  0
LINE
  8
0
 62
     7
 10
12.225043
 20
1.114556
 30
0.0
 11
9.725043
 21
1.114556
 31
0.0
  0
LINE
  8
0
 62
     7
 10
12.225043
 20
1.364556
 30
0.0
 11
9.725043
 21
1.364556
 31
0.0
  0
LINE
  8
0
 62
     7
 10
12.225043
 20
1.614556
 30
0.0
 11
9.725043
 21
1.614556
 31
0.0
  0
LINE
  8
0
 62
     7
 10
12.225043
 20
1.864556
 30
0.0
 11
9.725043
 21
1.864556
 31
0.0
  0
TEXT
  8
LETTER
 62
     3
 10
10.615043
 20
0.699556
 30
0.0
 40
0.08
  1
APPLICATION
 72
     4
 11
10.975043
 21
0.739556
 31
0.0
  0
TEXT
  8
LETTER
 62
     3
 10
11.390043
 20
0.959556
 30
0.0
 40
0.06
  1
USED ON
 72
     4
 11
11.600043
 21
0.989556
 31
0.0
  0
TEXT
  8
LETTER
 62
     3
 10
10.097186
 20
0.959556
 30
0.0
 40
0.06
  1
NEXT ASSY
 72
     4
 11
10.350043
 21
0.989556
 31
0.0
  0
TEXT
  8
LETTER
 62
     3
 10
20.2104
 20
2.704556
 30
0.0
 40
0.06
  1
NO.
 72
     4
 11
20.287543
 21
2.734556
 31
0.0
  0
TEXT
  8
LETTER
 62
     3
 10
20.191829
 20
2.839556
 30
0.0
 40
0.06
  1
ITEM
 72
     4
 11
20.287543
 21
2.869556
 31
0.0
  0
TEXT
  8
LETTER
 62
     3
 10
18.784329
 20
2.704556
 30
0.0
 40
0.06
  1
SPECIFICATION
 72
     4
 11
19.100043
 21
2.734556
 31
0.0
  0
TEXT
  8
LETTER
 62
     3
 10
18.894329
 20
2.839556
 30
0.0
 40
0.06
  1
MATERIAL
 72
     4
 11
19.100043
 21
2.869556
 31
0.0
  0
TEXT
  8
LETTER
 62
     3
 10
16.038257
 20
2.704556
 30
0.0
 40
0.06
  1
OR DESCRIPTION
 72
     4
 11
16.412543
 21
2.734556
 31
0.0
  0
TEXT
  8
LETTER
 62
     3
 10
16.062543
 20
2.839556
 30
0.0
 40
0.06
  1
NOMENCLATURE
 72
     4
 11
16.412543
 21
2.869556
 31
0.0
  0
TEXT
  8
LETTER
 62
     3
 10
13.734329
 20
2.704556
 30
0.0
 40
0.06
  1
IDENTIFYING NO.
 72
     4
 11
14.100043
 21
2.734556
 31
0.0
  0
TEXT
  8
LETTER
 62
     3
 10
13.1479
 20
2.704556
 30
0.0
 40
0.06
  1
NO.
 72
     4
 11
13.225043
 21
2.734556
 31
0.0
  0
TEXT
  8
LETTER
 62
     3
 10
12.667543
 20
2.707413
 30
0.0
 40
0.06
  1
REQD
 72
     4
 11
12.787543
 21
2.734556
 31
0.0
  0
TEXT
  8
LETTER
 62
     3
 10
13.898614
 20
2.839556
 30
0.0
 40
0.06
  1
PART OR
 72
     4
 11
14.100043
 21
2.869556
 31
0.0
  0
TEXT
  8
LETTER
 62
     3
 10
13.106472
 20
2.839556
 30
0.0
 40
0.06
  1
FSCM
 72
     4
 11
13.225043
 21
2.869556
 31
0.0
  0
TEXT
  8
LETTER
 62
     3
 10
12.704686
 20
2.842413
 30
0.0
 40
0.06
  1
QTY
 72
     4
 11
12.787543
 21
2.869556
 31
0.0
  0
LINE
  8
0
 62
     7
 10
14.725043
 20
2.614556
 30
0.0
 11
14.725043
 21
2.989556
 31
0.0
  0
LINE
  8
0
 62
     7
 10
13.475043
 20
2.614556
 30
0.0
 11
13.475043
 21
2.989556
 31
0.0
  0
LINE
  8
0
 62
     7
 10
12.975043
 20
2.614556
 30
0.0
 11
12.975043
 21
2.989556
 31
0.0
  0
LINE
  8
0
 62
     7
 10
12.600043
 20
2.614556
 30
0.0
 11
12.600043
 21
2.989556
 31
0.0
  0
LINE
  8
0
 62
     7
 10
18.100043
 20
2.614556
 30
0.0
 11
18.100043
 21
2.989556
 31
0.0
  0
LINE
  8
0
 62
     7
 10
20.100043
 20
2.614556
 30
0.0
 11
20.100043
 21
2.989556
 31
0.0
  0
LINE
  8
0
 62
     7
 10
12.225043
 20
2.989556
 30
0.0
 11
20.475043
 21
2.989556
 31
0.0
  0
LINE
  8
0
 62
     7
 10
20.475043
 20
2.614556
 30
0.0
 11
12.225043
 21
2.614556
 31
0.0
  0
TEXT
  8
LETTER
 62
     3
 10
15.958953
 20
2.449556
 30
0.0
 40
0.08
  1
PARTS LIST
 72
     4
 11
16.303714
 21
2.489556
 31
0.0
  0
INSERT
  8
0
  2
TBLKLOGO
 10
19.375
 20
2.25
 30
0.0
 41
0.5
 42
0.5
 43
0.5
  0
LINE
  8
0
 62
     7
 10
0.5
 20
15.364556
 30
0.0
 11
20.475
 21
15.364556
 31
0.0
  0
LINE
  8
0
 62
     7
 10
0.5
 20
0.614556
 30
0.0
 11
20.475
 21
0.614556
 31
0.0
  0
LINE
  8
0
 62
     7
 10
0.5
 20
15.364556
 30
0.0
 11
0.5
 21
0.614556
 31
0.0
  0
LINE
  8
0
 62
     7
 10
20.475
 20
15.364556
 30
0.0
 11
20.475
 21
0.614556
 31
0.0
  0
TEXT
  8
LETTER
 62
     3
 10
17.274365
 20
0.766637
 30
0.0
 40
0.06
  1
CAD
  0
TEXT
  8
LETTER
 62
     3
 10
20.573496
 20
6.688959
 30
0.0
 40
0.18
  1
XXXXXXXXXX
 50
270.0
  0
TEXT
  8
LETTER
 62
     3
 10
20.570644
 20
4.443174
 30
0.0
 40
0.18
  1
1
 50
270.0
  0
TEXT
  8
LETTER
 62
     3
 10
12.354414
 20
1.774887
 30
0.0
 40
0.06
  1
%%p 1/32"
 72
     1
 11
12.536652
 21
1.774887
 31
0.0
  0
TEXT
  8
LETTER
 62
     3
 10
13.028218
 20
1.774887
 30
0.0
 40
0.06
  1
.XX  %%p.030"
 72
     1
 11
13.307956
 21
1.774887
 31
0.0
  0
TEXT
  8
LETTER
 62
     3
 10
13.80093
 20
1.774887
 30
0.0
 40
0.06
  1
%%p 1/4%%d
 72
     1
 11
13.94793
 21
1.774887
 31
0.0
  0
TEXT
  8
LETTER
 62
     3
 10
13.029566
 20
1.666026
 30
0.0
 40
0.06
  1
.XXX %%p.015"
 72
     1
 11
13.298804
 21
1.666026
 31
0.0
  0
TEXT
  8
LETTER
 62
     3
 10
12.89549
 20
1.322692
 30
0.0
 40
0.085
  1
MATERIAL
 72
     1
 11
13.21424
 21
1.322692
 31
0.0
  0
TEXT
  8
LETTER
 62
     3
 10
13.01874
 20
0.96261
 30
0.0
 40
0.085
  1
FINISH
 72
     1
 11
13.21424
 21
0.96261
 31
0.0
  0
TEXT
  8
LETTER
 62
     3
 10
14.724818
 20
1.439928
 30
0.0
 40
0.085
  1
T. KRUEGER
 72
     1
 11
15.113693
 21
1.439928
 31
0.0
  0
TEXT
  8
LETTER
 62
     3
 10
15.866429
 20
1.458575
 30
0.0
 40
0.06
  1
DATE
 72
     4
 11
15.975
 21
1.488575
 31
0.0
  0
TEXT
  8
LETTER
 62
     3
 10
17.665625
 20
1.586189
 30
0.0
 40
0.125
  1
TITLE LINE #1
 72
     1
 11
18.35
 21
1.586189
 31
0.0
  0
TEXT
  8
LETTER
 62
     3
 10
17.6375
 20
1.373689
 30
0.0
 40
0.125
  1
TITLE LINE #2
 72
     1
 11
18.35
 21
1.373689
 31
0.0
  0
TEXT
  8
LETTER
 62
     3
 10
18.564281
 20
0.987627
 30
0.0
 40
0.125
  1
XXXXXXXXXX
 72
     1
 11
19.189281
 21
0.987627
 31
0.0
  0
TEXT
  8
LETTER
 62
     3
 10
19.440416
 20
0.67837
 30
0.0
 40
0.125
  1
1 OF 1
 72
     1
 11
19.752916
 21
0.67837
 31
0.0
  0
TEXT
  8
LETTER
 62
     3
 10
17.637504
 20
0.689567
 30
0.0
 40
0.1
  1
XXXXXXXX
 72
     1
 11
18.037504
 21
0.689567
 31
0.0
  0
ENDSEC
  0
EOF
