  0
SECTION
  2
HEADER
  9
$ACADVER
  1
AC1009
  9
$INSBASE
 10
0.0
 20
0.0
 30
0.0
  9
$EXTMIN
 10
2.236291
 20
-4.509862
 30
0.0
  9
$EXTMAX
 10
12.209508
 20
8.361824
 30
0.0
  9
$LIMMIN
 10
0.0
 20
0.0
  9
$LIMMAX
 10
12.0
 20
9.0
  9
$ORTHOMODE
 70
     0
  9
$REGENMODE
 70
     1
  9
$FILLMODE
 70
     1
  9
$QTEXTMODE
 70
     0
  9
$MIRRTEXT
 70
     1
  9
$DRAGMODE
 70
     2
  9
$LTSCALE
 40
1.0
  9
$OSMODE
 70
     2
  9
$ATTMODE
 70
     1
  9
$TEXTSIZE
 40
0.07
  9
$TRACEWID
 40
0.05
  9
$TEXTSTYLE
  7
STANDARD
  9
$CLAYER
  8
0
  9
$CELTYPE
  6
BYLAYER
  9
$CECOLOR
 62
   256
  9
$DIMSCALE
 40
1.0
  9
$DIMASZ
 40
0.18
  9
$DIMEXO
 40
0.0625
  9
$DIMDLI
 40
0.38
  9
$DIMRND
 40
0.0
  9
$DIMDLE
 40
0.0
  9
$DIMEXE
 40
0.18
  9
$DIMTP
 40
0.0
  9
$DIMTM
 40
0.0
  9
$DIMTXT
 40
0.18
  9
$DIMCEN
 40
0.09
  9
$DIMTSZ
 40
0.0
  9
$DIMTOL
 70
     0
  9
$DIMLIM
 70
     0
  9
$DIMTIH
 70
     1
  9
$DIMTOH
 70
     1
  9
$DIMSE1
 70
     0
  9
$DIMSE2
 70
     0
  9
$DIMTAD
 70
     0
  9
$DIMZIN
 70
     0
  9
$DIMBLK
  1

  9
$DIMASO
 70
     1
  9
$DIMSHO
 70
     1
  9
$DIMPOST
  1

  9
$DIMAPOST
  1

  9
$DIMALT
 70
     0
  9
$DIMALTD
 70
     2
  9
$DIMALTF
 40
25.4
  9
$DIMLFAC
 40
1.0
  9
$DIMTOFL
 70
     0
  9
$DIMTVP
 40
0.0
  9
$DIMTIX
 70
     0
  9
$DIMSOXD
 70
     0
  9
$DIMSAH
 70
     0
  9
$DIMBLK1
  1

  9
$DIMBLK2
  1

  9
$DIMSTYLE
  2
*UNNAMED
  9
$DIMCLRD
 70
     0
  9
$DIMCLRE
 70
     0
  9
$DIMCLRT
 70
     0
  9
$DIMTFAC
 40
1.0
  9
$DIMGAP
 40
0.09
  9
$LUNITS
 70
     2
  9
$LUPREC
 70
     4
  9
$SKETCHINC
 40
0.1
  9
$FILLETRAD
 40
0.01
  9
$AUNITS
 70
     0
  9
$AUPREC
 70
     0
  9
$MENU
  1
acad
  9
$ELEVATION
 40
0.0
  9
$PELEVATION
 40
0.0
  9
$THICKNESS
 40
0.0
  9
$LIMCHECK
 70
     0
  9
$BLIPMODE
 70
     0
  9
$CHAMFERA
 40
0.0
  9
$CHAMFERB
 40
0.0
  9
$SKPOLY
 70
     0
  9
$TDCREATE
 40
2449775.778821874
  9
$TDUPDATE
 40
2449776.430800115
  9
$TDINDWG
 40
0.1099983796
  9
$TDUSRTIMER
 40
0.1099983796
  9
$USRTIMER
 70
     1
  9
$ANGBASE
 50
0.0
  9
$ANGDIR
 70
     0
  9
$PDMODE
 70
     0
  9
$PDSIZE
 40
0.0
  9
$PLINEWID
 40
0.2
  9
$COORDS
 70
     1
  9
$SPLFRAME
 70
     0
  9
$SPLINETYPE
 70
     6
  9
$SPLINESEGS
 70
     8
  9
$ATTDIA
 70
     0
  9
$ATTREQ
 70
     1
  9
$HANDLING
 70
     0
  9
$HANDSEED
  5
0
  9
$SURFTAB1
 70
     6
  9
$SURFTAB2
 70
     6
  9
$SURFTYPE
 70
     6
  9
$SURFU
 70
     6
  9
$SURFV
 70
     6
  9
$UCSNAME
  2

  9
$UCSORG
 10
0.0
 20
0.0
 30
0.0
  9
$UCSXDIR
 10
1.0
 20
0.0
 30
0.0
  9
$UCSYDIR
 10
0.0
 20
1.0
 30
0.0
  9
$PUCSNAME
  2

  9
$PUCSORG
 10
0.0
 20
0.0
 30
0.0
  9
$PUCSXDIR
 10
1.0
 20
0.0
 30
0.0
  9
$PUCSYDIR
 10
0.0
 20
1.0
 30
0.0
  9
$USERI1
 70
     0
  9
$USERI2
 70
     0
  9
$USERI3
 70
     0
  9
$USERI4
 70
     0
  9
$USERI5
 70
     0
  9
$USERR1
 40
0.0
  9
$USERR2
 40
0.0
  9
$USERR3
 40
0.0
  9
$USERR4
 40
0.0
  9
$USERR5
 40
0.0
  9
$WORLDVIEW
 70
     1
  9
$SHADEDGE
 70
     3
  9
$SHADEDIF
 70
    70
  9
$TILEMODE
 70
     1
  9
$MAXACTVP
 70
    16
  9
$PINSBASE
 10
0.0
 20
0.0
 30
0.0
  9
$PLIMCHECK
 70
     0
  9
$PEXTMIN
 10
1.000000E+20
 20
1.000000E+20
 30
1.000000E+20
  9
$PEXTMAX
 10
-1.000000E+20
 20
-1.000000E+20
 30
-1.000000E+20
  9
$PLIMMIN
 10
0.0
 20
0.0
  9
$PLIMMAX
 10
12.0
 20
9.0
  9
$UNITMODE
 70
     0
  9
$VISRETAIN
 70
     0
  9
$PLINEGEN
 70
     0
  9
$PSLTSCALE
 70
     1
  9
$TREEDEPTH
 70
  3020
  9
$DWGCODEPAGE
  3
ascii
  0
ENDSEC
  0
SECTION
  2
TABLES
  0
TABLE
  2
VPORT
 70
     2
  0
VPORT
  2
*ACTIVE
 70
     0
 10
0.0
 20
0.0
 11
1.0
 21
1.0
 12
6.243341
 22
1.473913
 13
0.0
 23
0.0
 14
1.0
 24
1.0
 15
0.0
 25
0.0
 16
0.0
 26
0.0
 36
1.0
 17
0.0
 27
0.0
 37
0.0
 40
10.8
 41
1.387409
 42
50.0
 43
0.0
 44
0.0
 50
0.0
 51
0.0
 71
     0
 72
   100
 73
     1
 74
     1
 75
     0
 76
     0
 77
     0
 78
     0
  0
ENDTAB
  0
TABLE
  2
LTYPE
 70
     1
  0
LTYPE
  2
CONTINUOUS
 70
    64
  3
Solid line
 72
    65
 73
     0
 40
0.0
  0
ENDTAB
  0
TABLE
  2
LAYER
 70
     1
  0
LAYER
  2
0
 70
    64
 62
     7
  6
CONTINUOUS
  0
ENDTAB
  0
TABLE
  2
STYLE
 70
     1
  0
STYLE
  2
STANDARD
 70
    64
 40
0.0
 41
1.0
 50
0.0
 71
     0
 42
0.07
  3
txt
  4

  0
ENDTAB
  0
TABLE
  2
VIEW
 70
     0
  0
ENDTAB
  0
TABLE
  2
UCS
 70
     0
  0
ENDTAB
  0
TABLE
  2
APPID
 70
     1
  0
APPID
  2
ACAD
 70
    64
  0
ENDTAB
  0
TABLE
  2
DIMSTYLE
 70
     0
  0
ENDTAB
  0
ENDSEC
  0
SECTION
  2
BLOCKS
  0
BLOCK
  8
0
  2
CHAIR
 70
    66
 10
0.0
 20
0.0
 30
0.0
  3
CHAIR
  0
ATTDEF
  8
0
 10
-0.049959
 20
-0.195348
 30
0.0
 40
0.07
  1
C1
  3
C?
  2
ID
 70
     0
 72
     1
 11
-0.003292
 21
-0.195348
 31
0.0
  0
POLYLINE
  8
0
 66
     1
 10
0.0
 20
0.0
 30
0.0
 70
     1
  0
VERTEX
  8
0
 10
-0.13
 20
-0.246957
 30
0.0
  0
VERTEX
  8
0
 10
-0.13
 20
-0.13
 30
0.0
 42
-0.414214
  0
VERTEX
  8
0
 10
0.0
 20
0.0
 30
0.0
  0
VERTEX
  8
0
 10
0.001046
 20
0.0
 30
0.0
 42
-0.414214
  0
VERTEX
  8
0
 10
0.131046
 20
-0.13
 30
0.0
  0
VERTEX
  8
0
 10
0.131046
 20
-0.246957
 30
0.0
 42
-0.414214
  0
VERTEX
  8
0
 10
0.091046
 20
-0.286957
 30
0.0
  0
VERTEX
  8
0
 10
-0.09
 20
-0.286957
 30
0.0
 42
-0.414214
  0
SEQEND
  8
0
  0
ATTDEF
  8
0
 10
-0.166626
 20
-0.312015
 30
0.0
 40
0.07
  1
Black
  3
Color?
  2
COLOR
 70
     1
 72
     1
 11
-0.003292
 21
-0.312015
 31
0.0
  0
POLYLINE
  8
0
 66
     1
 10
0.0
 20
0.0
 30
0.0
 70
     1
  0
VERTEX
  8
0
 10
-0.091161
 20
-0.312227
 30
0.0
  0
VERTEX
  8
0
 10
-0.091161
 20
-0.320223
 30
0.0
 42
0.414214
  0
VERTEX
  8
0
 10
-0.081161
 20
-0.330223
 30
0.0
  0
VERTEX
  8
0
 10
0.082207
 20
-0.330223
 30
0.0
 42
0.414214
  0
VERTEX
  8
0
 10
0.092207
 20
-0.320223
 30
0.0
  0
VERTEX
  8
0
 10
0.092207
 20
-0.312227
 30
0.0
 42
0.414214
  0
VERTEX
  8
0
 10
0.082207
 20
-0.302227
 30
0.0
  0
VERTEX
  8
0
 10
-0.081161
 20
-0.302227
 30
0.0
 42
0.414214
  0
SEQEND
  8
0
  0
POLYLINE
  8
0
 66
     1
 10
0.0
 20
0.0
 30
0.0
 70
     1
  0
VERTEX
  8
0
 10
-0.026218
 20
-0.302227
 30
0.0
  0
VERTEX
  8
0
 10
-0.026218
 20
-0.286957
 30
0.0
  0
VERTEX
  8
0
 10
0.027264
 20
-0.286957
 30
0.0
  0
VERTEX
  8
0
 10
0.027264
 20
-0.302227
 30
0.0
  0
SEQEND
  8
0
  0
ENDBLK
  8
0
  0
BLOCK
  8
0
  2
TABLE
 70
    66
 10
0.0
 20
0.0
 30
0.0
  3
TABLE
  0
ATTDEF
  8
0
 10
-0.181562
 20
0.078885
 30
0.0
 40
0.07
  1
24
  3
Height?
  2
HEIGHT
 70
     1
 72
     1
 11
0.005105
 21
0.078885
 31
0.0
  0
ATTDEF
  8
0
 10
-0.158228
 20
-0.154449
 30
0.0
 40
0.07
  1
Black
  3
Color?
  2
COLOR
 70
     1
 72
     1
 11
0.005105
 21
-0.154449
 31
0.0
  0
POLYLINE
  8
0
 66
     1
 10
0.0
 20
0.0
 30
0.0
 70
     1
  0
VERTEX
  8
0
 10
-0.170635
 20
0.038356
 30
0.0
  0
VERTEX
  8
0
 10
-0.170635
 20
-0.043446
 30
0.0
 42
0.414214
  0
VERTEX
  8
0
 10
-0.160635
 20
-0.053446
 30
0.0
  0
VERTEX
  8
0
 10
0.155541
 20
-0.053446
 30
0.0
 42
0.414214
  0
VERTEX
  8
0
 10
0.165541
 20
-0.043446
 30
0.0
  0
VERTEX
  8
0
 10
0.165541
 20
0.038356
 30
0.0
 42
0.414214
  0
VERTEX
  8
0
 10
0.155541
 20
0.048356
 30
0.0
  0
VERTEX
  8
0
 10
-0.160635
 20
0.048356
 30
0.0
 42
0.414214
  0
SEQEND
  8
0
  0
ATTDEF
  8
0
 10
-0.041562
 20
-0.037782
 30
0.0
 40
0.07
  1
T1
  3
T?
  2
ID
 70
     0
 72
     1
 11
0.005105
 21
-0.037782
 31
0.0
  0
ENDBLK
  8
0
  0
ENDSEC
  0
SECTION
  2
ENTITIES
  0
LINE
  8
0
 10
3.092794
 20
5.746331
 30
0.0
 11
10.571007
 21
5.746331
 31
0.0
  0
LINE
  8
0
 10
10.571007
 20
5.746331
 30
0.0
 11
10.571007
 21
-2.697928
 31
0.0
  0
LINE
  8
0
 10
3.092794
 20
5.746331
 30
0.0
 11
3.092794
 21
-1.515347
 31
0.0
  0
LINE
  8
0
 10
3.092794
 20
-2.697928
 30
0.0
 11
10.571007
 21
-2.697928
 31
0.0
  0
ARC
  8
0
 10
3.092794
 20
-2.085719
 30
0.0
 40
0.570372
 50
54.526258
 51
90.0
  0
LINE
  8
0
 10
3.092794
 20
-2.085719
 30
0.0
 11
3.423798
 21
-1.621219
 31
0.0
  0
LINE
  8
0
 10
3.092794
 20
-2.085719
 30
0.0
 11
3.092794
 21
-2.697928
 31
0.0
  0
INSERT
  8
0
 66
     1
  2
TABLE
 10
4.872852
 20
3.521739
 30
0.0
 41
3.0
 42
3.0
 43
3.0
  0
ATTRIB
  8
0
 10
4.713166
 20
3.758394
 30
0.0
 40
0.21
  1
24
  2
HEIGHT
 70
     1
 72
     1
 11
4.888166
 21
3.758394
 31
0.0
  0
ATTRIB
  8
0
 10
4.450666
 20
3.058394
 30
0.0
 40
0.21
  1
Black
  2
COLOR
 70
     1
 72
     1
 11
4.888166
 21
3.058394
 31
0.0
  0
ATTRIB
  8
0
 10
4.713166
 20
3.408394
 30
0.0
 40
0.21
  1
T2
  2
ID
 70
     0
 72
     1
 11
4.888166
 21
3.408394
 31
0.0
  0
SEQEND
  8
0
  0
INSERT
  8
0
 66
     1
  2
TABLE
 10
4.872852
 20
5.008696
 30
0.0
 41
3.0
 42
3.0
 43
3.0
  0
ATTRIB
  8
0
 10
4.713166
 20
5.24535
 30
0.0
 40
0.21
  1
24
  2
HEIGHT
 70
     1
 72
     1
 11
4.888166
 21
5.24535
 31
0.0
  0
ATTRIB
  8
0
 10
4.450666
 20
4.54535
 30
0.0
 40
0.21
  1
Black
  2
COLOR
 70
     1
 72
     1
 11
4.888166
 21
4.54535
 31
0.0
  0
ATTRIB
  8
0
 10
4.748166
 20
4.89535
 30
0.0
 40
0.21
  1
T1
  2
ID
 70
     0
 72
     1
 11
4.888166
 21
4.89535
 31
0.0
  0
SEQEND
  8
0
  0
INSERT
  8
0
 66
     1
  2
TABLE
 10
4.898956
 20
2.034783
 30
0.0
 41
3.0
 42
3.0
 43
3.0
  0
ATTRIB
  8
0
 10
4.739271
 20
2.271437
 30
0.0
 40
0.21
  1
24
  2
HEIGHT
 70
     1
 72
     1
 11
4.914271
 21
2.271437
 31
0.0
  0
ATTRIB
  8
0
 10
4.476771
 20
1.571437
 30
0.0
 40
0.21
  1
Black
  2
COLOR
 70
     1
 72
     1
 11
4.914271
 21
1.571437
 31
0.0
  0
ATTRIB
  8
0
 10
4.739271
 20
1.921437
 30
0.0
 40
0.21
  1
T3
  2
ID
 70
     0
 72
     1
 11
4.914271
 21
1.921437
 31
0.0
  0
SEQEND
  8
0
  0
INSERT
  8
0
 66
     1
  2
TABLE
 10
4.898956
 20
0.391304
 30
0.0
 41
3.0
 42
3.0
 43
3.0
  0
ATTRIB
  8
0
 10
4.739271
 20
0.627959
 30
0.0
 40
0.21
  1
24
  2
HEIGHT
 70
     1
 72
     1
 11
4.914271
 21
0.627959
 31
0.0
  0
ATTRIB
  8
0
 10
4.476771
 20
-0.072041
 30
0.0
 40
0.21
  1
Black
  2
COLOR
 70
     1
 72
     1
 11
4.914271
 21
-0.072041
 31
0.0
  0
ATTRIB
  8
0
 10
4.739271
 20
0.277959
 30
0.0
 40
0.21
  1
T4
  2
ID
 70
     0
 72
     1
 11
4.914271
 21
0.277959
 31
0.0
  0
SEQEND
  8
0
  0
INSERT
  8
0
 66
     1
  2
TABLE
 10
4.872852
 20
-1.095652
 30
0.0
 41
3.0
 42
3.0
 43
3.0
  0
ATTRIB
  8
0
 10
4.713166
 20
-0.858998
 30
0.0
 40
0.21
  1
24
  2
HEIGHT
 70
     1
 72
     1
 11
4.888166
 21
-0.858998
 31
0.0
  0
ATTRIB
  8
0
 10
4.450666
 20
-1.558998
 30
0.0
 40
0.21
  1
Black
  2
COLOR
 70
     1
 72
     1
 11
4.888166
 21
-1.558998
 31
0.0
  0
ATTRIB
  8
0
 10
4.713166
 20
-1.208998
 30
0.0
 40
0.21
  1
T5
  2
ID
 70
     0
 72
     1
 11
4.888166
 21
-1.208998
 31
0.0
  0
SEQEND
  8
0
  0
INSERT
  8
0
 66
     1
  2
TABLE
 10
8.788536
 20
5.027147
 30
0.0
 41
3.0
 42
3.0
 43
3.0
  0
ATTRIB
  8
0
 10
8.646351
 20
5.263802
 30
0.0
 40
0.21
  1
30
  2
HEIGHT
 70
     1
 72
     1
 11
8.803851
 21
5.263802
 31
0.0
  0
ATTRIB
  8
0
 10
8.331351
 20
4.563802
 30
0.0
 40
0.21
  1
Brown
  2
COLOR
 70
     1
 72
     1
 11
8.803851
 21
4.563802
 31
0.0
  0
ATTRIB
  8
0
 10
8.628851
 20
4.913802
 30
0.0
 40
0.21
  1
T6
  2
ID
 70
     0
 72
     1
 11
8.803851
 21
4.913802
 31
0.0
  0
SEQEND
  8
0
  0
INSERT
  8
0
 66
     1
  2
TABLE
 10
8.788536
 20
3.514104
 30
0.0
 41
3.0
 42
3.0
 43
3.0
  0
ATTRIB
  8
0
 10
8.646351
 20
3.750758
 30
0.0
 40
0.21
  1
30
  2
HEIGHT
 70
     1
 72
     1
 11
8.803851
 21
3.750758
 31
0.0
  0
ATTRIB
  8
0
 10
8.331351
 20
3.050758
 30
0.0
 40
0.21
  1
Brown
  2
COLOR
 70
     1
 72
     1
 11
8.803851
 21
3.050758
 31
0.0
  0
ATTRIB
  8
0
 10
8.628851
 20
3.400758
 30
0.0
 40
0.21
  1
T7
  2
ID
 70
     0
 72
     1
 11
8.803851
 21
3.400758
 31
0.0
  0
SEQEND
  8
0
  0
INSERT
  8
0
 66
     1
  2
TABLE
 10
8.788536
 20
2.027147
 30
0.0
 41
3.0
 42
3.0
 43
3.0
  0
ATTRIB
  8
0
 10
8.646351
 20
2.263802
 30
0.0
 40
0.21
  1
30
  2
HEIGHT
 70
     1
 72
     1
 11
8.803851
 21
2.263802
 31
0.0
  0
ATTRIB
  8
0
 10
8.418851
 20
1.563802
 30
0.0
 40
0.21
  1
Gray
  2
COLOR
 70
     1
 72
     1
 11
8.803851
 21
1.563802
 31
0.0
  0
ATTRIB
  8
0
 10
8.628851
 20
1.913802
 30
0.0
 40
0.21
  1
T8
  2
ID
 70
     0
 72
     1
 11
8.803851
 21
1.913802
 31
0.0
  0
SEQEND
  8
0
  0
INSERT
  8
0
 66
     1
  2
TABLE
 10
8.788536
 20
0.383669
 30
0.0
 41
3.0
 42
3.0
 43
3.0
  0
ATTRIB
  8
0
 10
8.646351
 20
0.620324
 30
0.0
 40
0.21
  1
30
  2
HEIGHT
 70
     1
 72
     1
 11
8.803851
 21
0.620324
 31
0.0
  0
ATTRIB
  8
0
 10
8.418851
 20
-0.079676
 30
0.0
 40
0.21
  1
Gray
  2
COLOR
 70
     1
 72
     1
 11
8.803851
 21
-0.079676
 31
0.0
  0
ATTRIB
  8
0
 10
8.628851
 20
0.270324
 30
0.0
 40
0.21
  1
T9
  2
ID
 70
     0
 72
     1
 11
8.803851
 21
0.270324
 31
0.0
  0
SEQEND
  8
0
  0
INSERT
  8
0
 66
     1
  2
TABLE
 10
8.788536
 20
-1.103287
 30
0.0
 41
3.0
 42
3.0
 43
3.0
  0
ATTRIB
  8
0
 10
8.646351
 20
-0.866633
 30
0.0
 40
0.21
  1
30
  2
HEIGHT
 70
     1
 72
     1
 11
8.803851
 21
-0.866633
 31
0.0
  0
ATTRIB
  8
0
 10
8.418851
 20
-1.566633
 30
0.0
 40
0.21
  1
Gray
  2
COLOR
 70
     1
 72
     1
 11
8.803851
 21
-1.566633
 31
0.0
  0
ATTRIB
  8
0
 10
8.576351
 20
-1.216633
 30
0.0
 40
0.21
  1
T10
  2
ID
 70
     0
 72
     1
 11
8.803851
 21
-1.216633
 31
0.0
  0
SEQEND
  8
0
  0
INSERT
  8
0
 66
     1
  2
CHAIR
 10
4.559711
 20
4.789161
 30
0.0
  0
ATTRIB
  8
0
 10
4.509752
 20
4.593813
 30
0.0
 40
0.07
  1
C1
  2
ID
 70
     0
 72
     1
 11
4.556418
 21
4.593813
 31
0.0
  0
ATTRIB
  8
0
 10
4.410585
 20
4.477146
 30
0.0
 40
0.07
  1
Black
  2
COLOR
 70
     1
 72
     1
 11
4.556418
 21
4.477146
 31
0.0
  0
SEQEND
  8
0
  0
INSERT
  8
0
 66
     1
  2
CHAIR
 10
5.199136
 20
4.789161
 30
0.0
  0
ATTRIB
  8
0
 10
5.13751
 20
4.593813
 30
0.0
 40
0.07
  1
C2
  2
ID
 70
     0
 72
     1
 11
5.195844
 21
4.593813
 31
0.0
  0
ATTRIB
  8
0
 10
5.05001
 20
4.477146
 30
0.0
 40
0.07
  1
Black
  2
COLOR
 70
     1
 72
     1
 11
5.195844
 21
4.477146
 31
0.0
  0
SEQEND
  8
0
  0
INSERT
  8
0
 66
     1
  2
CHAIR
 10
4.559711
 20
3.302204
 30
0.0
  0
ATTRIB
  8
0
 10
4.498085
 20
3.106856
 30
0.0
 40
0.07
  1
C3
  2
ID
 70
     0
 72
     1
 11
4.556418
 21
3.106856
 31
0.0
  0
ATTRIB
  8
0
 10
4.410585
 20
2.99019
 30
0.0
 40
0.07
  1
Black
  2
COLOR
 70
     1
 72
     1
 11
4.556418
 21
2.99019
 31
0.0
  0
SEQEND
  8
0
  0
INSERT
  8
0
 66
     1
  2
CHAIR
 10
5.199136
 20
3.302204
 30
0.0
  0
ATTRIB
  8
0
 10
5.13751
 20
3.106856
 30
0.0
 40
0.07
  1
C4
  2
ID
 70
     0
 72
     1
 11
5.195844
 21
3.106856
 31
0.0
  0
ATTRIB
  8
0
 10
5.05001
 20
2.99019
 30
0.0
 40
0.07
  1
Black
  2
COLOR
 70
     1
 72
     1
 11
5.195844
 21
2.99019
 31
0.0
  0
SEQEND
  8
0
  0
INSERT
  8
0
 66
     1
  2
CHAIR
 10
4.585815
 20
1.815248
 30
0.0
  0
ATTRIB
  8
0
 10
4.524189
 20
1.6199
 30
0.0
 40
0.07
  1
C5
  2
ID
 70
     0
 72
     1
 11
4.582523
 21
1.6199
 31
0.0
  0
ATTRIB
  8
0
 10
4.436689
 20
1.503233
 30
0.0
 40
0.07
  1
Black
  2
COLOR
 70
     1
 72
     1
 11
4.582523
 21
1.503233
 31
0.0
  0
SEQEND
  8
0
  0
INSERT
  8
0
 66
     1
  2
CHAIR
 10
5.225241
 20
1.815248
 30
0.0
  0
ATTRIB
  8
0
 10
5.163615
 20
1.6199
 30
0.0
 40
0.07
  1
C6
  2
ID
 70
     0
 72
     1
 11
5.221948
 21
1.6199
 31
0.0
  0
ATTRIB
  8
0
 10
5.076115
 20
1.503233
 30
0.0
 40
0.07
  1
Black
  2
COLOR
 70
     1
 72
     1
 11
5.221948
 21
1.503233
 31
0.0
  0
SEQEND
  8
0
  0
INSERT
  8
0
 66
     1
  2
CHAIR
 10
4.585815
 20
0.171769
 30
0.0
  0
ATTRIB
  8
0
 10
4.524189
 20
-0.023578
 30
0.0
 40
0.07
  1
C7
  2
ID
 70
     0
 72
     1
 11
4.582523
 21
-0.023578
 31
0.0
  0
ATTRIB
  8
0
 10
4.436689
 20
-0.140245
 30
0.0
 40
0.07
  1
Black
  2
COLOR
 70
     1
 72
     1
 11
4.582523
 21
-0.140245
 31
0.0
  0
SEQEND
  8
0
  0
INSERT
  8
0
 66
     1
  2
CHAIR
 10
5.225241
 20
0.171769
 30
0.0
  0
ATTRIB
  8
0
 10
5.163615
 20
-0.023578
 30
0.0
 40
0.07
  1
C8
  2
ID
 70
     0
 72
     1
 11
5.221948
 21
-0.023578
 31
0.0
  0
ATTRIB
  8
0
 10
5.076115
 20
-0.140245
 30
0.0
 40
0.07
  1
Black
  2
COLOR
 70
     1
 72
     1
 11
5.221948
 21
-0.140245
 31
0.0
  0
SEQEND
  8
0
  0
INSERT
  8
0
 66
     1
  2
CHAIR
 10
4.559711
 20
-1.315187
 30
0.0
  0
ATTRIB
  8
0
 10
4.498085
 20
-1.510535
 30
0.0
 40
0.07
  1
C9
  2
ID
 70
     0
 72
     1
 11
4.556418
 21
-1.510535
 31
0.0
  0
ATTRIB
  8
0
 10
4.410585
 20
-1.627202
 30
0.0
 40
0.07
  1
Black
  2
COLOR
 70
     1
 72
     1
 11
4.556418
 21
-1.627202
 31
0.0
  0
SEQEND
  8
0
  0
INSERT
  8
0
 66
     1
  2
CHAIR
 10
5.199136
 20
-1.315187
 30
0.0
  0
ATTRIB
  8
0
 10
5.12001
 20
-1.510535
 30
0.0
 40
0.07
  1
C10
  2
ID
 70
     0
 72
     1
 11
5.195844
 21
-1.510535
 31
0.0
  0
ATTRIB
  8
0
 10
5.05001
 20
-1.627202
 30
0.0
 40
0.07
  1
Black
  2
COLOR
 70
     1
 72
     1
 11
5.195844
 21
-1.627202
 31
0.0
  0
SEQEND
  8
0
  0
INSERT
  8
0
 66
     1
  2
CHAIR
 10
8.475395
 20
-1.322822
 30
0.0
  0
ATTRIB
  8
0
 10
8.390436
 20
-1.51817
 30
0.0
 40
0.07
  1
C19
  2
ID
 70
     0
 72
     1
 11
8.472103
 21
-1.51817
 31
0.0
  0
ATTRIB
  8
0
 10
8.343769
 20
-1.634837
 30
0.0
 40
0.07
  1
Gray
  2
COLOR
 70
     1
 72
     1
 11
8.472103
 21
-1.634837
 31
0.0
  0
SEQEND
  8
0
  0
INSERT
  8
0
 66
     1
  2
CHAIR
 10
9.114821
 20
-1.322822
 30
0.0
  0
ATTRIB
  8
0
 10
9.024028
 20
-1.51817
 30
0.0
 40
0.07
  1
C20
  2
ID
 70
     0
 72
     1
 11
9.111528
 21
-1.51817
 31
0.0
  0
ATTRIB
  8
0
 10
8.983195
 20
-1.634837
 30
0.0
 40
0.07
  1
Gray
  2
COLOR
 70
     1
 72
     1
 11
9.111528
 21
-1.634837
 31
0.0
  0
SEQEND
  8
0
  0
INSERT
  8
0
 66
     1
  2
CHAIR
 10
8.475395
 20
0.164134
 30
0.0
  0
ATTRIB
  8
0
 10
8.390436
 20
-0.031214
 30
0.0
 40
0.07
  1
C17
  2
ID
 70
     0
 72
     1
 11
8.472103
 21
-0.031214
 31
0.0
  0
ATTRIB
  8
0
 10
8.343769
 20
-0.14788
 30
0.0
 40
0.07
  1
Gray
  2
COLOR
 70
     1
 72
     1
 11
8.472103
 21
-0.14788
 31
0.0
  0
SEQEND
  8
0
  0
INSERT
  8
0
 66
     1
  2
CHAIR
 10
9.114821
 20
0.164134
 30
0.0
  0
ATTRIB
  8
0
 10
9.029861
 20
-0.031214
 30
0.0
 40
0.07
  1
C18
  2
ID
 70
     0
 72
     1
 11
9.111528
 21
-0.031214
 31
0.0
  0
ATTRIB
  8
0
 10
8.983195
 20
-0.14788
 30
0.0
 40
0.07
  1
Gray
  2
COLOR
 70
     1
 72
     1
 11
9.111528
 21
-0.14788
 31
0.0
  0
SEQEND
  8
0
  0
INSERT
  8
0
 66
     1
  2
CHAIR
 10
8.475395
 20
1.807612
 30
0.0
  0
ATTRIB
  8
0
 10
8.390436
 20
1.612265
 30
0.0
 40
0.07
  1
C15
  2
ID
 70
     0
 72
     1
 11
8.472103
 21
1.612265
 31
0.0
  0
ATTRIB
  8
0
 10
8.343769
 20
1.495598
 30
0.0
 40
0.07
  1
Gray
  2
COLOR
 70
     1
 72
     1
 11
8.472103
 21
1.495598
 31
0.0
  0
SEQEND
  8
0
  0
INSERT
  8
0
 66
     1
  2
CHAIR
 10
9.114821
 20
1.807612
 30
0.0
  0
ATTRIB
  8
0
 10
9.029861
 20
1.612265
 30
0.0
 40
0.07
  1
C16
  2
ID
 70
     0
 72
     1
 11
9.111528
 21
1.612265
 31
0.0
  0
ATTRIB
  8
0
 10
8.983195
 20
1.495598
 30
0.0
 40
0.07
  1
Gray
  2
COLOR
 70
     1
 72
     1
 11
9.111528
 21
1.495598
 31
0.0
  0
SEQEND
  8
0
  0
INSERT
  8
0
 66
     1
  2
CHAIR
 10
8.475395
 20
3.294569
 30
0.0
  0
ATTRIB
  8
0
 10
8.390436
 20
3.099221
 30
0.0
 40
0.07
  1
C13
  2
ID
 70
     0
 72
     1
 11
8.472103
 21
3.099221
 31
0.0
  0
ATTRIB
  8
0
 10
8.314603
 20
2.982554
 30
0.0
 40
0.07
  1
Brown
  2
COLOR
 70
     1
 72
     1
 11
8.472103
 21
2.982554
 31
0.0
  0
SEQEND
  8
0
  0
INSERT
  8
0
 66
     1
  2
CHAIR
 10
9.114821
 20
3.294569
 30
0.0
  0
ATTRIB
  8
0
 10
9.029861
 20
3.099221
 30
0.0
 40
0.07
  1
C14
  2
ID
 70
     0
 72
     1
 11
9.111528
 21
3.099221
 31
0.0
  0
ATTRIB
  8
0
 10
8.954028
 20
2.982554
 30
0.0
 40
0.07
  1
Brown
  2
COLOR
 70
     1
 72
     1
 11
9.111528
 21
2.982554
 31
0.0
  0
SEQEND
  8
0
  0
INSERT
  8
0
 66
     1
  2
CHAIR
 10
8.475395
 20
4.807612
 30
0.0
  0
ATTRIB
  8
0
 10
8.402103
 20
4.612265
 30
0.0
 40
0.07
  1
C11
  2
ID
 70
     0
 72
     1
 11
8.472103
 21
4.612265
 31
0.0
  0
ATTRIB
  8
0
 10
8.314603
 20
4.495598
 30
0.0
 40
0.07
  1
Brown
  2
COLOR
 70
     1
 72
     1
 11
8.472103
 21
4.495598
 31
0.0
  0
SEQEND
  8
0
  0
INSERT
  8
0
 66
     1
  2
CHAIR
 10
9.114821
 20
4.807612
 30
0.0
  0
ATTRIB
  8
0
 10
9.029861
 20
4.612265
 30
0.0
 40
0.07
  1
C12
  2
ID
 70
     0
 72
     1
 11
9.111528
 21
4.612265
 31
0.0
  0
ATTRIB
  8
0
 10
8.954028
 20
4.495598
 30
0.0
 40
0.07
  1
Brown
  2
COLOR
 70
     1
 72
     1
 11
9.111528
 21
4.495598
 31
0.0
  0
SEQEND
  8
0
  0
ENDSEC
  0
EOF
