0
SECTION
2
HEADER
9
$LTSCALE
40
0.5
9
$LIMMIN
10
0
20
0
9
$LIMMAX
10
12
20
9
9
$EXTMIN
10
4.542253
20
0.7413629
9
$EXTMAX
10
11.75871
20
7.804494
9
$SNAPMODE
70
0
9
$SNAPUNIT
10
1
20
1
9
$GRIDMODE
70
0
9
$GRIDUNIT
10
0
20
0
9
$ORTHOMODE
70
0
9
$TEXTSTYLE
7
txt
9
$CLAYER
8
1
9
$CECOLOR
62
7
9
$CELTYPE
6
CONTINUOUS
9
$OSMODE
70
0
0
ENDSEC
0
SECTION
2
TABLES
0
TABLE
2
STYLE
70
2
0
STYLE
2
txt
70
0
40
0
41
1
50
0
71
0
42
0
3
txt
4

0
STYLE
2
MONOTXT
70
0
40
0
41
1
50
0
71
0
42
0
3
MONOTXT
4

0
ENDTAB
0
TABLE
2
LTYPE
70
9
0
LTYPE
2
DASHED
70
0
3
__ __ __ __ __ __ __ __ __ __ __ __ __ __ __
72
65
73
2
40
0.75
49
0.5
49
-0.25
0
LTYPE
2
HIDDEN
70
0
3
_ _ _ _ _ _ _ _ _ _ _ _ _ _ _ _ _ _ _ _ _ _ 
72
65
73
2
40
0.375
49
0.25
49
-0.125
0
LTYPE
2
CENTER
70
0
3
____ _ ____ _ ____ _ ____ _ ____ _ ____ _ __
72
65
73
4
40
2
49
1.25
49
-0.25
49
0.25
49
-0.25
0
LTYPE
2
PHANTOM
70
0
3
_____ _ _ _____ _ _ _____ _ _ _____ _ _ ____
72
65
73
6
40
2.5
49
1.25
49
-0.25
49
0.25
49
-0.25
49
0.25
49
-0.25
0
LTYPE
2
DOT
70
0
3
............................................
72
65
73
2
40
0.25
49
0
49
-0.25
0
LTYPE
2
DASHDOT
70
0
3
__ . __ . __ . __ . __ . __ . __ . __ . __ .
72
65
73
4
40
1
49
0.5
49
-0.25
49
0
49
-0.25
0
LTYPE
2
BORDER
70
0
3
__ __ . __ __ . __ __ . __ __ . __ __ . __ _
72
65
73
6
40
1.75
49
0.5
49
-0.25
49
0.5
49
-0.25
49
0
49
-0.25
0
LTYPE
2
DIVIDE
70
0
3
__ . . __ . . __ . . __ . . __ . . __ . . __
72
65
73
6
40
1.25
49
0.5
49
-0.25
49
0
49
-0.25
49
0
49
-0.25
0
LTYPE
2
DOTS
70
0
3
close
72
65
73
2
40
0.1
49
0.05
49
-0.05
0
ENDTAB
0
TABLE
2
LAYER
70
10
0
LAYER
2
1
70
0
62
7
6
CONTINUOUS
0
LAYER
2
2
70
0
62
7
6
CONTINUOUS
0
LAYER
2
3
70
0
62
7
6
CONTINUOUS
0
LAYER
2
4
70
0
62
7
6
CONTINUOUS
0
LAYER
2
5
70
0
62
7
6
CONTINUOUS
0
LAYER
2
6
70
0
62
7
6
CONTINUOUS
0
LAYER
2
7
70
0
62
7
6
CONTINUOUS
0
LAYER
2
8
70
0
62
7
6
CONTINUOUS
0
LAYER
2
9
70
0
62
7
6
CONTINUOUS
0
LAYER
2
10
70
0
62
7
6
CONTINUOUS
0
ENDTAB
0
ENDSEC
0
SECTION
2
ENTITIES
0
LINE
8
1
62
7
10
6.002465
20
6.77609
11
5.284155
21
6.77609
0
LINE
8
1
62
7
10
6.002465
20
7.735227
11
5.28838
21
7.735227
0
LINE
8
1
62
7
10
6.024472
20
5.27946
11
5.306162
21
5.27946
0
LINE
8
1
62
7
10
6.024472
20
6.238597
11
5.310387
21
6.238597
0
LINE
8
1
62
7
10
6.002465
20
3.782831
11
5.284155
21
3.782831
0
LINE
8
1
62
7
10
6.002465
20
4.741968
11
5.28838
21
4.741968
0
LINE
8
1
62
7
10
6.024472
20
2.265977
11
5.306162
21
2.265977
0
LINE
8
1
62
7
10
6.024472
20
3.225114
11
5.310387
21
3.225114
0
TEXT
8
1
62
7
10
5.59331
20
7.135604
40
0.1944
1
4001B
7
txt
0
TEXT
8
1
62
7
10
5.611135
20
5.63857
40
0.1944
1
4001B
7
txt
0
TEXT
8
1
62
7
10
5.611135
20
4.141941
40
0.1944
1
4001B
7
txt
0
TEXT
8
1
62
7
10
5.611135
20
2.645312
40
0.1944
1
4001B
7
txt
0
ARC
8
1
62
7
10
4.535894
20
4.264341
40
0.8877057
50
327.4492
51
32.55076
0
TEXT
8
1
62
7
10
4.524647
20
2.198502
40
0.2
1
13
41
0.8
7
MONOTXT
0
ARC
8
1
62
7
10
4.557901
20
2.747487
40
0.8877057
50
327.4492
51
32.55076
0
LINE
8
1
62
7
10
4.921655
20
2.984359
11
5.40757
21
2.984359
0
LINE
8
1
62
7
10
4.921655
20
2.506732
11
5.403345
21
2.506732
0
TEXT
8
1
62
7
10
4.524648
20
3.073857
40
0.2
1
12
41
0.8
7
MONOTXT
0
LINE
8
1
62
7
10
4.899648
20
4.023586
11
5.381338
21
4.023586
0
TEXT
8
1
62
7
10
4.542253
20
3.719551
40
0.2
1
8
41
0.8
7
MONOTXT
0
TEXT
8
1
62
7
10
4.542253
20
6.725094
40
0.2
1
2
41
0.8
7
MONOTXT
0
ARC
8
1
62
7
10
4.557901
20
5.760971
40
0.8877057
50
327.4492
51
32.55076
0
LINE
8
1
62
7
10
4.921655
20
5.520216
11
5.403345
21
5.520216
0
LINE
8
1
62
7
10
4.899648
20
4.501213
11
5.385563
21
4.501213
0
TEXT
8
1
62
7
10
4.542253
20
5.231611
40
0.2
1
5
41
0.8
7
MONOTXT
0
TEXT
8
1
62
7
10
4.542253
20
4.57543
40
0.2
1
9
41
0.8
7
MONOTXT
0
LINE
8
1
62
7
10
4.921655
20
5.997842
11
5.40757
21
5.997842
0
TEXT
8
1
62
7
10
4.542253
20
6.079401
40
0.2
1
6
41
0.8
7
MONOTXT
0
LINE
8
1
62
7
10
4.899648
20
7.494472
11
5.385563
21
7.494472
0
LINE
8
1
62
7
10
4.899648
20
7.016845
11
5.381338
21
7.016845
0
ARC
8
1
62
7
10
4.535894
20
7.2576
40
0.8877057
50
327.4492
51
32.55076
0
TEXT
8
1
62
7
10
4.524648
20
7.604494
40
0.2
1
1
41
0.8
7
MONOTXT
0
ARC
8
1
62
7
10
5.96611
20
3.901987
40
0.8409606
50
25.52349
51
87.23413
0
TEXT
8
1
62
7
10
7.517605
20
4.484794
40
0.2
1
10
41
0.8
7
MONOTXT
0
POLYLINE
8
1
62
7
70
1
66
1
40
0
41
0
0
VERTEX
8
1
10
7.995357
20
0.7413629
0
VERTEX
8
1
10
7.995357
20
1.496279
0
VERTEX
8
1
10
11.75871
20
1.496279
0
VERTEX
8
1
10
11.75871
20
0.7413629
0
SEQEND
8
1
0
TEXT
8
1
62
7
10
8.045774
20
1.173708
40
0.18
1
Quad 2-Input NOR Gate
7
txt
0
TEXT
8
1
62
7
10
8.653169
20
0.8737079
40
0.18
1
Vdd= 3v to 15v
7
txt
0
LINE
8
1
62
7
10
7.524648
20
4.258517
11
6.956383
21
4.258517
0
LINE
8
1
62
7
10
7.546655
20
2.741663
11
6.97839
21
2.741663
0
ARC
8
1
62
7
10
5.990045
20
3.100176
40
0.835094
50
272.6529
51
335.0179
0
CIRCLE
8
1
62
7
10
6.860035
20
2.736809
40
0.1187162
0
ARC
8
1
62
7
10
5.988117
20
2.385134
40
0.8409606
50
25.52349
51
87.23413
0
CIRCLE
8
1
62
7
10
6.838028
20
4.253663
40
0.1187162
0
ARC
8
1
62
7
10
5.968038
20
4.61703
40
0.835094
50
272.6529
51
335.0179
0
TEXT
8
1
62
7
10
7.544014
20
2.974382
40
0.2
1
11
41
0.8
7
MONOTXT
0
LINE
8
1
62
7
10
7.546655
20
5.755146
11
6.97839
21
5.755146
0
TEXT
8
1
62
7
10
7.495598
20
6.005843
40
0.2
1
4
41
0.8
7
MONOTXT
0
ARC
8
1
62
7
10
5.990045
20
6.113659
40
0.835094
50
272.6529
51
335.0179
0
CIRCLE
8
1
62
7
10
6.860035
20
5.750292
40
0.1187162
0
ARC
8
1
62
7
10
5.988117
20
5.398617
40
0.8409606
50
25.52349
51
87.23413
0
LINE
8
1
62
7
10
7.524648
20
7.251775
11
6.956383
21
7.251775
0
TEXT
8
1
62
7
10
7.447183
20
7.49603
40
0.2
1
3
41
0.8
7
MONOTXT
0
CIRCLE
8
1
62
7
10
6.838028
20
7.246921
40
0.1187162
0
ARC
8
1
62
7
10
5.968038
20
7.610288
40
0.835094
50
272.6529
51
335.0179
0
ARC
8
1
62
7
10
5.96611
20
6.895246
40
0.8409606
50
25.52349
51
87.23413
0
ENDSEC
0
EOF
