0
SECTION
2
HEADER
9
$LTSCALE
40
0.5
9
$LIMMIN
10
0
20
0
9
$LIMMAX
10
12
20
9
9
$EXTMIN
10
4.280694
20
0.4710048
9
$EXTMAX
10
11.88335
20
7.733146
9
$SNAPMODE
70
0
9
$SNAPUNIT
10
1
20
1
9
$GRIDMODE
70
0
9
$GRIDUNIT
10
0
20
0
9
$ORTHOMODE
70
0
9
$TEXTSTYLE
7
txt
9
$CLAYER
8
1
9
$CECOLOR
62
7
9
$CELTYPE
6
CONTINUOUS
9
$OSMODE
70
0
0
ENDSEC
0
SECTION
2
TABLES
0
TABLE
2
STYLE
70
1
0
STYLE
2
MONOTXT
70
0
40
0
41
1
50
0
71
0
42
0
3
MONOTXT
4

0
ENDTAB
0
TABLE
2
LTYPE
70
9
0
LTYPE
2
DASHED
70
0
3
__ __ __ __ __ __ __ __ __ __ __ __ __ __ __
72
65
73
2
40
0.75
49
0.5
49
-0.25
0
LTYPE
2
HIDDEN
70
0
3
_ _ _ _ _ _ _ _ _ _ _ _ _ _ _ _ _ _ _ _ _ _ 
72
65
73
2
40
0.375
49
0.25
49
-0.125
0
LTYPE
2
CENTER
70
0
3
____ _ ____ _ ____ _ ____ _ ____ _ ____ _ __
72
65
73
4
40
2
49
1.25
49
-0.25
49
0.25
49
-0.25
0
LTYPE
2
PHANTOM
70
0
3
_____ _ _ _____ _ _ _____ _ _ _____ _ _ ____
72
65
73
6
40
2.5
49
1.25
49
-0.25
49
0.25
49
-0.25
49
0.25
49
-0.25
0
LTYPE
2
DOT
70
0
3
............................................
72
65
73
2
40
0.25
49
0
49
-0.25
0
LTYPE
2
DASHDOT
70
0
3
__ . __ . __ . __ . __ . __ . __ . __ . __ .
72
65
73
4
40
1
49
0.5
49
-0.25
49
0
49
-0.25
0
LTYPE
2
BORDER
70
0
3
__ __ . __ __ . __ __ . __ __ . __ __ . __ _
72
65
73
6
40
1.75
49
0.5
49
-0.25
49
0.5
49
-0.25
49
0
49
-0.25
0
LTYPE
2
DIVIDE
70
0
3
__ . . __ . . __ . . __ . . __ . . __ . . __
72
65
73
6
40
1.25
49
0.5
49
-0.25
49
0
49
-0.25
49
0
49
-0.25
0
LTYPE
2
DOTS
70
0
3
close
72
65
73
2
40
0.1
49
0.05
49
-0.05
0
ENDTAB
0
TABLE
2
LAYER
70
10
0
LAYER
2
1
70
0
62
7
6
CONTINUOUS
0
LAYER
2
2
70
0
62
7
6
CONTINUOUS
0
LAYER
2
3
70
0
62
7
6
CONTINUOUS
0
LAYER
2
4
70
0
62
7
6
CONTINUOUS
0
LAYER
2
5
70
0
62
7
6
CONTINUOUS
0
LAYER
2
6
70
0
62
7
6
CONTINUOUS
0
LAYER
2
7
70
0
62
7
6
CONTINUOUS
0
LAYER
2
8
70
0
62
7
6
CONTINUOUS
0
LAYER
2
9
70
0
62
7
6
CONTINUOUS
0
LAYER
2
10
70
0
62
7
6
CONTINUOUS
0
ENDTAB
0
ENDSEC
0
SECTION
2
ENTITIES
0
TEXT
8
1
62
7
10
5.486356
20
6.884494
40
0.225
1
7401
41
0.8
7
MONOTXT
0
TEXT
8
1
62
7
10
5.486356
20
5.40809
40
0.225
1
7401
41
0.8
7
MONOTXT
0
TEXT
8
1
62
7
10
5.486356
20
3.91146
40
0.225
1
7401
41
0.8
7
MONOTXT
0
TEXT
8
1
62
7
10
5.486356
20
2.394606
40
0.225
1
7401
41
0.8
7
MONOTXT
0
ARC
8
1
62
7
10
5.877732
20
4.012196
40
0.5311525
50
279.7689
51
80.7125
0
ARC
8
1
62
7
10
5.877732
20
2.495342
40
0.5311525
50
279.7689
51
80.7125
0
ARC
8
1
62
7
10
5.877732
20
6.98523
40
0.5311525
50
279.7689
51
80.7125
0
ARC
8
1
62
7
10
5.877732
20
5.508825
40
0.5311525
50
279.7689
51
80.7125
0
LINE
8
1
62
7
10
5.249475
20
4.536386
11
5.249475
21
3.488745
0
LINE
8
1
62
7
10
5.249475
20
3.019531
11
5.249475
21
1.971891
0
TEXT
8
1
62
7
10
4.24736
20
2.248689
40
0.25
1
11
41
0.8
7
MONOTXT
0
LINE
8
1
62
7
10
5.968593
20
1.971309
11
5.250316
21
1.971309
0
LINE
8
1
62
7
10
4.853348
20
2.170093
11
5.249475
21
2.170093
0
TEXT
8
1
62
7
10
4.24736
20
2.984831
40
0.25
1
12
41
0.8
7
MONOTXT
0
TEXT
8
1
62
7
10
4.423416
20
3.733333
40
0.25
1
8
41
0.8
7
MONOTXT
0
LINE
8
1
62
7
10
5.963151
20
3.018974
11
5.250316
21
3.018974
0
LINE
8
1
62
7
10
4.853348
20
2.821329
11
5.249475
21
2.821329
0
LINE
8
1
62
7
10
5.968593
20
3.488163
11
5.250316
21
3.488163
0
LINE
8
1
62
7
10
4.853348
20
3.686947
11
5.249475
21
3.686947
0
LINE
8
1
62
7
10
4.853348
20
4.338183
11
5.249475
21
4.338183
0
LINE
8
1
62
7
10
5.249475
20
7.509419
11
5.249475
21
6.461779
0
TEXT
8
1
62
7
10
4.401409
20
5.266479
40
0.25
1
5
41
0.8
7
MONOTXT
0
TEXT
8
1
62
7
10
4.423416
20
4.509925
40
0.25
1
9
41
0.8
7
MONOTXT
0
TEXT
8
1
62
7
10
4.401409
20
6.002621
40
0.25
1
6
41
0.8
7
MONOTXT
0
LINE
8
1
62
7
10
5.249475
20
6.033015
11
5.249475
21
4.985374
0
LINE
8
1
62
7
10
5.968593
20
4.984792
11
5.250316
21
4.984792
0
LINE
8
1
62
7
10
5.963151
20
4.535828
11
5.250316
21
4.535828
0
LINE
8
1
62
7
10
4.853348
20
5.183577
11
5.249475
21
5.183577
0
LINE
8
1
62
7
10
5.968593
20
6.461196
11
5.250316
21
6.461196
0
LINE
8
1
62
7
10
5.963151
20
6.032457
11
5.250316
21
6.032457
0
LINE
8
1
62
7
10
4.853348
20
6.659981
11
5.249475
21
6.659981
0
LINE
8
1
62
7
10
4.853348
20
5.834813
11
5.249475
21
5.834813
0
TEXT
8
1
62
7
10
4.401409
20
6.755056
40
0.25
1
2
41
0.8
7
MONOTXT
0
TEXT
8
1
62
7
10
4.379403
20
7.483146
40
0.25
1
3
41
0.8
7
MONOTXT
0
LINE
8
1
62
7
10
5.963151
20
7.508862
11
5.250316
21
7.508862
0
LINE
8
1
62
7
10
4.853348
20
7.311217
11
5.249475
21
7.311217
0
POLYLINE
8
1
62
7
70
1
66
1
40
0
41
0
0
VERTEX
8
1
10
7.74366
20
0.4710048
0
VERTEX
8
1
10
7.74366
20
1.301412
0
VERTEX
8
1
10
11.88335
20
1.301412
0
VERTEX
8
1
10
11.88335
20
0.4710048
0
SEQEND
8
1
0
TEXT
8
1
62
7
10
8.296655
20
1.059775
40
0.15
1
Quad 2-input NAND Gate with
41
0.8
7
MONOTXT
0
TEXT
8
1
62
7
10
8.666373
20
0.8097753
40
0.15
1
Open Collector Output
41
0.8
7
MONOTXT
0
LINE
8
1
62
7
10
7.518941
20
3.998768
11
6.719195
21
3.998768
0
LINE
8
1
62
7
10
7.504896
20
2.500321
11
6.719195
21
2.500321
0
TEXT
8
1
62
7
10
7.196303
20
4.234831
40
0.25
1
10
41
0.8
7
MONOTXT
0
TEXT
8
1
62
7
10
7.196303
20
2.729962
40
0.25
1
13
41
0.8
7
MONOTXT
0
CIRCLE
8
1
62
7
10
6.580106
20
2.507865
40
0.1632876
0
CIRCLE
8
1
62
7
10
6.580106
20
4.004494
40
0.1632876
0
TEXT
8
1
62
7
10
9.445422
20
0.57191
40
0.15
1
74 74LS
41
0.8
7
MONOTXT
0
LINE
8
1
62
7
10
7.518941
20
5.497215
11
6.719195
21
5.497215
0
CIRCLE
8
1
62
7
10
6.580106
20
5.501123
40
0.1632876
0
TEXT
8
1
62
7
10
7.262324
20
5.723596
40
0.25
1
4
41
0.8
7
MONOTXT
0
LINE
8
1
62
7
10
7.518941
20
6.995662
11
6.719195
21
6.995662
0
TEXT
8
1
62
7
10
7.262324
20
7.220225
40
0.25
1
1
41
0.8
7
MONOTXT
0
CIRCLE
8
1
62
7
10
6.580106
20
6.997753
40
0.1632876
0
ENDSEC
0
EOF
