0
SECTION
2
HEADER
9
$LTSCALE
40
0.5
9
$LIMMIN
10
0
20
0
9
$LIMMAX
10
12
20
9
9
$EXTMIN
10
1.210387
20
2.002247
9
$EXTMAX
10
10.5751
20
6.959463
9
$SNAPMODE
70
0
9
$SNAPUNIT
10
1
20
1
9
$GRIDMODE
70
0
9
$GRIDUNIT
10
0
20
0
9
$ORTHOMODE
70
0
9
$TEXTSTYLE
7
txt
9
$CLAYER
8
1
9
$CECOLOR
62
7
9
$CELTYPE
6
CONTINUOUS
9
$OSMODE
70
0
0
ENDSEC
0
SECTION
2
TABLES
0
TABLE
2
STYLE
70
1
0
STYLE
2
MONOTXT
70
0
40
0
41
1
50
0
71
0
42
0
3
MONOTXT
4

0
ENDTAB
0
TABLE
2
LTYPE
70
9
0
LTYPE
2
DASHED
70
0
3
__ __ __ __ __ __ __ __ __ __ __ __ __ __ __
72
65
73
2
40
0.75
49
0.5
49
-0.25
0
LTYPE
2
HIDDEN
70
0
3
_ _ _ _ _ _ _ _ _ _ _ _ _ _ _ _ _ _ _ _ _ _ 
72
65
73
2
40
0.375
49
0.25
49
-0.125
0
LTYPE
2
CENTER
70
0
3
____ _ ____ _ ____ _ ____ _ ____ _ ____ _ __
72
65
73
4
40
2
49
1.25
49
-0.25
49
0.25
49
-0.25
0
LTYPE
2
PHANTOM
70
0
3
_____ _ _ _____ _ _ _____ _ _ _____ _ _ ____
72
65
73
6
40
2.5
49
1.25
49
-0.25
49
0.25
49
-0.25
49
0.25
49
-0.25
0
LTYPE
2
DOT
70
0
3
............................................
72
65
73
2
40
0.25
49
0
49
-0.25
0
LTYPE
2
DASHDOT
70
0
3
__ . __ . __ . __ . __ . __ . __ . __ . __ .
72
65
73
4
40
1
49
0.5
49
-0.25
49
0
49
-0.25
0
LTYPE
2
BORDER
70
0
3
__ __ . __ __ . __ __ . __ __ . __ __ . __ _
72
65
73
6
40
1.75
49
0.5
49
-0.25
49
0.5
49
-0.25
49
0
49
-0.25
0
LTYPE
2
DIVIDE
70
0
3
__ . . __ . . __ . . __ . . __ . . __ . . __
72
65
73
6
40
1.25
49
0.5
49
-0.25
49
0
49
-0.25
49
0
49
-0.25
0
LTYPE
2
DOTS
70
0
3
close
72
65
73
2
40
0.1
49
0.05
49
-0.05
0
ENDTAB
0
TABLE
2
LAYER
70
10
0
LAYER
2
1
70
0
62
7
6
CONTINUOUS
0
LAYER
2
2
70
0
62
7
6
CONTINUOUS
0
LAYER
2
3
70
0
62
7
6
CONTINUOUS
0
LAYER
2
4
70
0
62
7
6
CONTINUOUS
0
LAYER
2
5
70
0
62
7
6
CONTINUOUS
0
LAYER
2
6
70
0
62
7
6
CONTINUOUS
0
LAYER
2
7
70
0
62
7
6
CONTINUOUS
0
LAYER
2
8
70
0
62
7
6
CONTINUOUS
0
LAYER
2
9
70
0
62
7
6
CONTINUOUS
0
LAYER
2
10
70
0
62
7
6
CONTINUOUS
0
ENDTAB
0
ENDSEC
0
SECTION
2
ENTITIES
0
POLYLINE
8
1
62
7
70
1
66
1
40
0
41
0
0
VERTEX
8
1
10
1.210387
20
2.002247
0
VERTEX
8
1
10
1.210387
20
2.791011
0
VERTEX
8
1
10
4.995599
20
2.791011
0
VERTEX
8
1
10
4.995599
20
2.002247
0
SEQEND
8
1
0
TEXT
8
1
62
7
10
1.782192
20
2.30147
40
0.18
1
BCD to Decimal Decoder
41
0.7
7
MONOTXT
0
POLYLINE
8
1
62
7
70
1
66
1
40
0
41
0
0
VERTEX
8
1
10
10.0167
20
2.004942
0
VERTEX
8
1
10
6.991078
20
2.004942
0
VERTEX
8
1
10
6.991078
20
6.959463
0
VERTEX
8
1
10
10.0167
20
6.959463
0
SEQEND
8
1
0
TEXT
8
1
62
7
10
6.627497
20
4.343746
40
0.275
1
5
50
6.832453e-07
41
0.8
7
MONOTXT
0
TEXT
8
1
62
7
10
10.1923
20
4.330936
40
0.275
1
12
50
6.832453e-07
41
0.8
7
MONOTXT
0
TEXT
8
1
62
7
10
8.223627
20
4.469354
40
0.25
1
8301
41
0.8
7
MONOTXT
0
TEXT
8
1
62
7
10
7.357113
20
2.434336
40
0.195
1
GND
41
0.7
7
MONOTXT
0
TEXT
8
1
62
7
10
6.627015
20
3.246218
40
0.275
1
7
50
6.832453e-07
41
0.8
7
MONOTXT
0
LINE
8
1
62
7
10
6.442315
20
2.553652
11
6.976246
21
2.553652
0
LINE
8
1
62
7
10
6.447903
20
3.101508
11
6.978076
21
3.101508
0
TEXT
8
1
62
7
10
6.633982
20
2.698389
40
0.275
1
8
50
6.832453e-07
41
0.8
7
MONOTXT
0
LINE
8
1
62
7
10
6.447903
20
3.657037
11
6.978076
21
3.657037
0
LINE
8
1
62
7
10
6.447903
20
4.201881
11
6.978076
21
4.201881
0
TEXT
8
1
62
7
10
6.621926
20
3.794981
40
0.275
1
6
50
6.832453e-07
41
0.8
7
MONOTXT
0
LINE
8
1
62
7
10
10.56546
20
2.553652
11
10.0167
21
2.553652
0
TEXT
8
1
62
7
10
10.1923
20
3.24824
40
0.275
1
10
50
6.832453e-07
41
0.8
7
MONOTXT
0
LINE
8
1
62
7
10
10.02166
20
3.101511
11
10.55183
21
3.101511
0
LINE
8
1
62
7
10
10.02166
20
3.657038
11
10.55183
21
3.657038
0
TEXT
8
1
62
7
10
10.41824
20
2.699476
40
0.275
1
9
50
6.832453e-07
41
0.8
7
MONOTXT
0
TEXT
8
1
62
7
10
10.23046
20
3.797004
40
0.275
1
11
50
6.832453e-07
41
0.8
7
MONOTXT
0
LINE
8
1
62
7
10
10.02166
20
4.201883
11
10.55183
21
4.201883
0
TEXT
8
1
62
7
10
6.63912
20
6.538803
40
0.275
1
1
50
6.832453e-07
41
0.8
7
MONOTXT
0
TEXT
8
1
62
7
10
6.627978
20
5.441273
40
0.275
1
3
50
6.832453e-07
41
0.8
7
MONOTXT
0
LINE
8
1
62
7
10
6.431765
20
4.75741
11
6.961936
21
4.75741
0
LINE
8
1
62
7
10
6.447903
20
5.302254
11
6.978076
21
5.302254
0
TEXT
8
1
62
7
10
6.622407
20
4.89251
40
0.275
1
4
50
6.832453e-07
41
0.8
7
MONOTXT
0
LINE
8
1
62
7
10
6.447903
20
5.857782
11
6.978076
21
5.857782
0
LINE
8
1
62
7
10
6.447903
20
6.402628
11
6.978076
21
6.402628
0
TEXT
8
1
62
7
10
6.628069
20
5.990038
40
0.275
1
2
50
6.832453e-07
41
0.8
7
MONOTXT
0
TEXT
8
1
62
7
10
10.20843
20
6.527435
40
0.275
1
16
50
6.832453e-07
41
0.8
7
MONOTXT
0
LINE
8
1
62
7
10
10.56644
20
4.771044
11
10.03626
21
4.771044
0
TEXT
8
1
62
7
10
10.1923
20
4.894532
40
0.275
1
13
50
6.832453e-07
41
0.8
7
MONOTXT
0
LINE
8
1
62
7
10
10.02166
20
5.302255
11
10.55183
21
5.302255
0
LINE
8
1
62
7
10
10.02166
20
5.857784
11
10.55183
21
5.857784
0
TEXT
8
1
62
7
10
10.18792
20
5.428465
40
0.275
1
14
50
6.832453e-07
41
0.8
7
MONOTXT
0
TEXT
8
1
62
7
10
10.1923
20
5.992061
40
0.275
1
15
50
6.832453e-07
41
0.8
7
MONOTXT
0
LINE
8
1
62
7
10
10.02166
20
6.402629
11
10.55183
21
6.402629
0
TEXT
8
1
62
7
10
9.333691
20
6.317108
40
0.195
1
Vcc
41
0.7
7
MONOTXT
0
ENDSEC
0
EOF
