0
SECTION
2
HEADER
9
$LTSCALE
40
0.5
9
$LIMMIN
10
0
20
0
9
$LIMMAX
10
12
20
9
9
$EXTMIN
10
1.804577
20
2.002247
9
$EXTMAX
10
10.58539
20
6.456739
9
$SNAPMODE
70
0
9
$SNAPUNIT
10
1
20
1
9
$GRIDMODE
70
0
9
$GRIDUNIT
10
0
20
0
9
$ORTHOMODE
70
0
9
$TEXTSTYLE
7
txt
9
$CLAYER
8
1
9
$CECOLOR
62
7
9
$CELTYPE
6
CONTINUOUS
9
$OSMODE
70
0
0
ENDSEC
0
SECTION
2
TABLES
0
TABLE
2
STYLE
70
1
0
STYLE
2
MONOTXT
70
0
40
0
41
1
50
0
71
0
42
0
3
MONOTXT
4

0
ENDTAB
0
TABLE
2
LTYPE
70
9
0
LTYPE
2
DASHED
70
0
3
__ __ __ __ __ __ __ __ __ __ __ __ __ __ __
72
65
73
2
40
0.75
49
0.5
49
-0.25
0
LTYPE
2
HIDDEN
70
0
3
_ _ _ _ _ _ _ _ _ _ _ _ _ _ _ _ _ _ _ _ _ _ 
72
65
73
2
40
0.375
49
0.25
49
-0.125
0
LTYPE
2
CENTER
70
0
3
____ _ ____ _ ____ _ ____ _ ____ _ ____ _ __
72
65
73
4
40
2
49
1.25
49
-0.25
49
0.25
49
-0.25
0
LTYPE
2
PHANTOM
70
0
3
_____ _ _ _____ _ _ _____ _ _ _____ _ _ ____
72
65
73
6
40
2.5
49
1.25
49
-0.25
49
0.25
49
-0.25
49
0.25
49
-0.25
0
LTYPE
2
DOT
70
0
3
............................................
72
65
73
2
40
0.25
49
0
49
-0.25
0
LTYPE
2
DASHDOT
70
0
3
__ . __ . __ . __ . __ . __ . __ . __ . __ .
72
65
73
4
40
1
49
0.5
49
-0.25
49
0
49
-0.25
0
LTYPE
2
BORDER
70
0
3
__ __ . __ __ . __ __ . __ __ . __ __ . __ _
72
65
73
6
40
1.75
49
0.5
49
-0.25
49
0.5
49
-0.25
49
0
49
-0.25
0
LTYPE
2
DIVIDE
70
0
3
__ . . __ . . __ . . __ . . __ . . __ . . __
72
65
73
6
40
1.25
49
0.5
49
-0.25
49
0
49
-0.25
49
0
49
-0.25
0
LTYPE
2
DOTS
70
0
3
close
72
65
73
2
40
0.1
49
0.05
49
-0.05
0
ENDTAB
0
TABLE
2
LAYER
70
10
0
LAYER
2
1
70
0
62
7
6
CONTINUOUS
0
LAYER
2
2
70
0
62
7
6
CONTINUOUS
0
LAYER
2
3
70
0
62
7
6
CONTINUOUS
0
LAYER
2
4
70
0
62
7
6
CONTINUOUS
0
LAYER
2
5
70
0
62
7
6
CONTINUOUS
0
LAYER
2
6
70
0
62
7
6
CONTINUOUS
0
LAYER
2
7
70
0
62
7
6
CONTINUOUS
0
LAYER
2
8
70
0
62
7
6
CONTINUOUS
0
LAYER
2
9
70
0
62
7
6
CONTINUOUS
0
LAYER
2
10
70
0
62
7
6
CONTINUOUS
0
ENDTAB
0
ENDSEC
0
SECTION
2
ENTITIES
0
POLYLINE
8
1
62
7
70
1
66
1
40
0
41
0
0
VERTEX
8
1
10
1.804577
20
2.002247
0
VERTEX
8
1
10
1.804577
20
2.811236
0
VERTEX
8
1
10
4.995599
20
2.811236
0
VERTEX
8
1
10
4.995599
20
2.002247
0
SEQEND
8
1
0
TEXT
8
1
62
7
10
2.091969
20
2.470366
40
0.1575
1
Retriggerable/Resettable
41
0.7
7
MONOTXT
0
TEXT
8
1
62
7
10
2.091969
20
2.207866
40
0.1575
1
Monostable/Multivibrator
41
0.7
7
MONOTXT
0
POLYLINE
8
1
62
7
70
1
66
1
40
0
41
0
0
VERTEX
8
1
10
6.99824
20
2.002247
0
VERTEX
8
1
10
6.99824
20
6.411236
0
VERTEX
8
1
10
9.991198
20
6.411236
0
VERTEX
8
1
10
9.991198
20
2.002247
0
SEQEND
8
1
0
TEXT
8
1
62
7
10
6.596592
20
4.385998
40
0.24
1
4
50
6.832453e-07
41
0.8
7
MONOTXT
0
TEXT
8
1
62
7
10
10.20473
20
4.413997
40
0.24
1
11
50
6.832453e-07
41
0.8
7
MONOTXT
0
TEXT
8
1
62
7
10
7.34215
20
2.31353
40
0.1875
1
GND
41
0.8
7
MONOTXT
0
TEXT
8
1
62
7
10
6.596592
20
3.180255
40
0.24
1
6
50
6.832453e-07
41
0.8
7
MONOTXT
0
LINE
8
1
62
7
10
6.404049
20
3.013484
11
6.99824
21
3.013484
0
LINE
8
1
62
7
10
6.404049
20
2.406742
11
6.99824
21
2.406742
0
TEXT
8
1
62
7
10
6.596592
20
2.585501
40
0.24
1
7
50
6.832453e-07
41
0.8
7
MONOTXT
0
LINE
8
1
62
7
10
6.404049
20
4.206742
11
6.99824
21
4.206742
0
LINE
8
1
62
7
10
6.404049
20
3.6
11
6.99824
21
3.6
0
TEXT
8
1
62
7
10
6.596592
20
3.791241
40
0.24
1
5
50
6.832453e-07
41
0.8
7
MONOTXT
0
TEXT
8
1
62
7
10
8.203584
20
4.182257
40
0.25
1
9600
41
0.8
7
MONOTXT
0
LINE
8
1
62
7
10
9.991198
20
3.013484
11
10.58539
21
3.013484
0
LINE
8
1
62
7
10
9.991198
20
2.406742
11
10.58539
21
2.406742
0
TEXT
8
1
62
7
10
10.38568
20
2.603285
40
0.24
1
8
50
6.832453e-07
41
0.8
7
MONOTXT
0
TEXT
8
1
62
7
10
10.37926
20
3.217747
40
0.24
1
9
50
6.832453e-07
41
0.8
7
MONOTXT
0
LINE
8
1
62
7
10
9.991198
20
3.6
11
10.58539
21
3.6
0
TEXT
8
1
62
7
10
10.20862
20
3.803762
40
0.24
1
10
50
6.832453e-07
41
0.8
7
MONOTXT
0
LINE
8
1
62
7
10
9.991198
20
4.206742
11
10.58539
21
4.206742
0
TEXT
8
1
62
7
10
6.596592
20
5.591741
40
0.24
1
2
50
6.832453e-07
41
0.8
7
MONOTXT
0
LINE
8
1
62
7
10
6.404049
20
5.4
11
6.99824
21
5.4
0
LINE
8
1
62
7
10
6.404049
20
4.813483
11
6.99824
21
4.813483
0
TEXT
8
1
62
7
10
6.596592
20
4.980753
40
0.24
1
3
50
6.832453e-07
41
0.8
7
MONOTXT
0
LINE
8
1
62
7
10
6.404049
20
6.006742
11
6.99824
21
6.006742
0
TEXT
8
1
62
7
10
6.611624
20
6.226339
40
0.2304
1
1
50
6.832453e-07
41
0.8
7
MONOTXT
0
TEXT
8
1
62
7
10
10.19142
20
5.610245
40
0.24
1
13
50
6.832453e-07
41
0.8
7
MONOTXT
0
LINE
8
1
62
7
10
9.991198
20
5.4
11
10.58539
21
5.4
0
LINE
8
1
62
7
10
9.991198
20
4.813483
11
10.58539
21
4.813483
0
TEXT
8
1
62
7
10
10.18661
20
5.020236
40
0.24
1
12
50
6.832453e-07
41
0.8
7
MONOTXT
0
LINE
8
1
62
7
10
9.991198
20
6.006742
11
10.58539
21
6.006742
0
TEXT
8
1
62
7
10
10.19142
20
6.216484
40
0.24
1
14
50
6.832453e-07
41
0.8
7
MONOTXT
0
TEXT
8
1
62
7
10
9.273371
20
5.85501
40
0.225
1
Vcc
41
0.7
7
MONOTXT
0
ENDSEC
0
EOF
