0
SECTION
2
HEADER
9
$LTSCALE
40
0.5
9
$LIMMIN
10
0
20
0
9
$LIMMAX
10
12
20
9
9
$EXTMIN
10
4.825044
20
1.00618
9
$EXTMAX
10
7.8125
20
6.389408
9
$SNAPMODE
70
0
9
$SNAPUNIT
10
1
20
1
9
$GRIDMODE
70
0
9
$GRIDUNIT
10
0.2
20
0.2
9
$ORTHOMODE
70
0
9
$TEXTSTYLE
7
txt
9
$CLAYER
8
1
9
$CECOLOR
62
7
9
$CELTYPE
6
CONTINUOUS
9
$OSMODE
70
0
0
ENDSEC
0
SECTION
2
TABLES
0
TABLE
2
STYLE
70
1
0
STYLE
2
txt
70
0
40
0
41
1
50
0
71
0
42
0
3
txt
4

0
ENDTAB
0
TABLE
2
LTYPE
70
9
0
LTYPE
2
DASHED
70
0
3
__ __ __ __ __ __ __ __ __ __ __ __ __ __ __
72
65
73
2
40
0.75
49
0.5
49
-0.25
0
LTYPE
2
HIDDEN
70
0
3
_ _ _ _ _ _ _ _ _ _ _ _ _ _ _ _ _ _ _ _ _ _ 
72
65
73
2
40
0.375
49
0.25
49
-0.125
0
LTYPE
2
CENTER
70
0
3
____ _ ____ _ ____ _ ____ _ ____ _ ____ _ __
72
65
73
4
40
2
49
1.25
49
-0.25
49
0.25
49
-0.25
0
LTYPE
2
PHANTOM
70
0
3
_____ _ _ _____ _ _ _____ _ _ _____ _ _ ____
72
65
73
6
40
2.5
49
1.25
49
-0.25
49
0.25
49
-0.25
49
0.25
49
-0.25
0
LTYPE
2
DOT
70
0
3
............................................
72
65
73
2
40
0.25
49
0
49
-0.25
0
LTYPE
2
DASHDOT
70
0
3
__ . __ . __ . __ . __ . __ . __ . __ . __ .
72
65
73
4
40
1
49
0.5
49
-0.25
49
0
49
-0.25
0
LTYPE
2
BORDER
70
0
3
__ __ . __ __ . __ __ . __ __ . __ __ . __ _
72
65
73
6
40
1.75
49
0.5
49
-0.25
49
0.5
49
-0.25
49
0
49
-0.25
0
LTYPE
2
DIVIDE
70
0
3
__ . . __ . . __ . . __ . . __ . . __ . . __
72
65
73
6
40
1.25
49
0.5
49
-0.25
49
0
49
-0.25
49
0
49
-0.25
0
LTYPE
2
DOTS
70
0
3
close
72
65
73
2
40
0.1
49
0.05
49
-0.05
0
ENDTAB
0
TABLE
2
LAYER
70
10
0
LAYER
2
1
70
0
62
7
6
CONTINUOUS
0
LAYER
2
2
70
0
62
7
6
CONTINUOUS
0
LAYER
2
3
70
0
62
7
6
CONTINUOUS
0
LAYER
2
4
70
0
62
7
6
CONTINUOUS
0
LAYER
2
5
70
0
62
7
6
CONTINUOUS
0
LAYER
2
6
70
0
62
7
6
CONTINUOUS
0
LAYER
2
7
70
0
62
7
6
CONTINUOUS
0
LAYER
2
8
70
0
62
7
6
CONTINUOUS
0
LAYER
2
9
70
0
62
7
6
CONTINUOUS
0
LAYER
2
10
70
0
62
7
6
CONTINUOUS
0
ENDTAB
0
ENDSEC
0
SECTION
2
ENTITIES
0
TEXT
8
1
62
7
10
4.825044
20
1.00618
40
0.1875
1
Potentiometer
41
0.8
7
txt
0
LINE
8
1
62
7
10
6.833681
20
3.785508
11
5.161986
21
4.288325
0
LINE
8
1
62
7
10
5.161986
20
3.534099
11
6.833681
21
3.785508
0
LINE
8
1
62
7
10
5.161986
20
4.288325
11
6.833681
21
4.539734
0
LINE
8
1
62
7
10
6.833681
20
4.539734
11
5.161986
21
5.042551
0
LINE
8
1
62
7
10
5.161986
20
5.042551
11
6.833681
21
5.29396
0
CIRCLE
8
1
62
7
10
5.998008
20
2.731583
40
0.03958471
0
SOLID
8
1
62
7
10
6.002243
20
2.769974
11
5.993509
21
2.769974
12
5.988269
22
2.768368
13
5.988269
23
2.768368
0
SOLID
8
1
62
7
10
5.981281
20
2.696131
11
5.998748
21
2.692921
12
6.007483
22
2.694525
13
6.007483
23
2.694525
0
SOLID
8
1
62
7
10
6.002243
20
2.769974
11
5.988269
21
2.768368
12
5.970801
22
2.760341
13
5.970801
23
2.760341
0
SOLID
8
1
62
7
10
5.981281
20
2.696131
11
6.007483
21
2.694525
12
6.023203
22
2.704157
13
6.023203
23
2.704157
0
SOLID
8
1
62
7
10
5.962067
20
2.717
11
5.981281
21
2.696131
12
6.023203
22
2.704157
13
6.023203
23
2.704157
0
SOLID
8
1
62
7
10
6.002243
20
2.769974
11
5.970801
21
2.760341
12
5.962067
22
2.717
13
5.962067
23
2.717
0
SOLID
8
1
62
7
10
6.002243
20
2.769974
11
5.962067
21
2.717
12
6.023203
22
2.704157
13
6.023203
23
2.704157
0
LINE
8
1
62
7
10
5.996976
20
5.799353
11
6.834402
21
5.298926
0
LINE
8
1
62
7
10
5.997833
20
3.038677
11
5.161986
21
3.534099
0
LINE
8
1
62
7
10
5.997833
20
2.521071
11
5.997833
21
3.038677
0
SOLID
8
1
62
7
10
5.965561
20
2.752315
11
5.962067
21
2.745894
12
5.960321
22
2.737868
13
5.960321
23
2.737868
0
SOLID
8
1
62
7
10
5.962067
20
2.717
11
5.967308
21
2.708973
12
5.972549
22
2.702553
13
5.972549
23
2.702553
0
SOLID
8
1
62
7
10
5.988269
20
2.768368
11
5.981281
21
2.766763
12
5.970801
22
2.760341
13
5.970801
23
2.760341
0
SOLID
8
1
62
7
10
5.960321
20
2.737868
11
5.960321
21
2.729841
12
5.962067
22
2.717
13
5.962067
23
2.717
0
SOLID
8
1
62
7
10
5.970801
20
2.760341
11
5.965561
21
2.752315
12
5.960321
22
2.737868
13
5.960321
23
2.737868
0
SOLID
8
1
62
7
10
5.962067
20
2.717
11
5.972549
21
2.702553
12
5.981281
22
2.696131
13
5.981281
23
2.696131
0
SOLID
8
1
62
7
10
5.970801
20
2.760341
11
5.960321
21
2.737868
12
5.962067
22
2.717
13
5.962067
23
2.717
0
SOLID
8
1
62
7
10
5.988653
20
2.754723
11
5.979417
21
2.761797
12
5.97018
22
2.746234
13
5.97018
23
2.746234
0
SOLID
8
1
62
7
10
5.973259
20
2.729257
11
5.988653
21
2.723598
12
5.991732
22
2.739161
13
5.991732
23
2.739161
0
SOLID
8
1
62
7
10
5.97018
20
2.746234
11
5.973259
21
2.729257
12
5.991732
22
2.739161
13
5.991732
23
2.739161
0
SOLID
8
1
62
7
10
5.97018
20
2.746234
11
5.991732
21
2.739161
12
5.988653
22
2.754723
13
5.988653
23
2.754723
0
SOLID
8
1
62
7
10
5.959403
20
2.722183
11
5.960942
21
2.716524
12
5.964021
22
2.712279
13
5.964021
23
2.712279
0
SOLID
8
1
62
7
10
5.960942
20
2.74199
11
5.957864
21
2.737746
12
5.959403
22
2.729257
13
5.959403
23
2.729257
0
SOLID
8
1
62
7
10
5.964021
20
2.712279
11
5.960942
21
2.74199
12
5.959403
22
2.729257
13
5.959403
23
2.729257
0
SOLID
8
1
62
7
10
5.959403
20
2.729257
11
5.959403
21
2.722183
12
5.964021
22
2.712279
13
5.964021
23
2.712279
0
LINE
8
1
62
7
10
5.996976
20
6.389408
11
5.996976
21
5.799353
0
LINE
8
1
62
7
10
7.8125
20
4.542472
11
7.8125
21
2.730337
0
SOLID
8
1
62
7
10
6.833487
20
4.540266
11
7.171268
21
4.701883
12
7.171268
22
4.375692
13
7.171268
23
4.375692
0
SOLID
8
1
62
7
10
6.833013
20
4.540359
11
7.17069
21
4.702079
12
7.17069
22
4.375725
13
7.17069
23
4.375725
0
LINE
8
1
62
7
10
6.007923
20
2.204494
11
6.007923
21
2.588764
0
LINE
8
1
62
7
10
7.794894
20
2.730337
11
6.034331
21
2.730337
0
SOLID
8
1
62
7
10
6.017963
20
2.697737
11
6.026697
21
2.704157
12
6.023203
22
2.704157
13
6.023203
23
2.704157
0
SOLID
8
1
62
7
10
6.007483
20
2.694525
11
6.017963
21
2.697737
12
6.023203
22
2.704157
13
6.023203
23
2.704157
0
SOLID
8
1
62
7
10
6.03543
20
2.747499
11
6.028443
21
2.757131
12
6.023203
22
2.763552
13
6.023203
23
2.763552
0
SOLID
8
1
62
7
10
6.023203
20
2.704157
11
6.03543
21
2.712184
12
6.037177
22
2.731447
13
6.037177
23
2.731447
0
SOLID
8
1
62
7
10
6.037177
20
2.731447
11
6.03543
21
2.747499
12
6.023203
22
2.763552
13
6.023203
23
2.763552
0
SOLID
8
1
62
7
10
6.037177
20
2.731447
11
6.023203
21
2.763552
12
6.002243
22
2.769974
13
6.002243
23
2.769974
0
SOLID
8
1
62
7
10
6.023203
20
2.704157
11
6.037177
21
2.731447
12
6.002243
22
2.769974
13
6.002243
23
2.769974
0
LINE
8
1
62
7
10
7.196303
20
4.542472
11
7.8125
21
4.542472
0
LINE
8
1
62
7
10
6.833685
20
5.293964
11
6.839094
21
5.294847
0
ENDSEC
0
EOF
