0
SECTION
2
HEADER
9
$LTSCALE
40
0.5
9
$LIMMIN
10
0
20
0
9
$LIMMAX
10
12
20
9
9
$EXTMIN
10
3.275049
20
2.096476
9
$EXTMAX
10
9.194942
20
6.981804
9
$SNAPMODE
70
0
9
$SNAPUNIT
10
1
20
1
9
$GRIDMODE
70
0
9
$GRIDUNIT
10
0.2
20
0.2
9
$ORTHOMODE
70
0
9
$TEXTSTYLE
7
txt
9
$CLAYER
8
1
9
$CECOLOR
62
7
9
$CELTYPE
6
CONTINUOUS
9
$OSMODE
70
0
0
ENDSEC
0
SECTION
2
TABLES
0
TABLE
2
STYLE
70
1
0
STYLE
2
MONOTXT
70
0
40
0
41
1
50
0
71
0
42
0
3
MONOTXT
4

0
ENDTAB
0
TABLE
2
LTYPE
70
9
0
LTYPE
2
DASHED
70
0
3
__ __ __ __ __ __ __ __ __ __ __ __ __ __ __
72
65
73
2
40
0.75
49
0.5
49
-0.25
0
LTYPE
2
HIDDEN
70
0
3
_ _ _ _ _ _ _ _ _ _ _ _ _ _ _ _ _ _ _ _ _ _ 
72
65
73
2
40
0.375
49
0.25
49
-0.125
0
LTYPE
2
CENTER
70
0
3
____ _ ____ _ ____ _ ____ _ ____ _ ____ _ __
72
65
73
4
40
2
49
1.25
49
-0.25
49
0.25
49
-0.25
0
LTYPE
2
PHANTOM
70
0
3
_____ _ _ _____ _ _ _____ _ _ _____ _ _ ____
72
65
73
6
40
2.5
49
1.25
49
-0.25
49
0.25
49
-0.25
49
0.25
49
-0.25
0
LTYPE
2
DOT
70
0
3
............................................
72
65
73
2
40
0.25
49
0
49
-0.25
0
LTYPE
2
DASHDOT
70
0
3
__ . __ . __ . __ . __ . __ . __ . __ . __ .
72
65
73
4
40
1
49
0.5
49
-0.25
49
0
49
-0.25
0
LTYPE
2
BORDER
70
0
3
__ __ . __ __ . __ __ . __ __ . __ __ . __ _
72
65
73
6
40
1.75
49
0.5
49
-0.25
49
0.5
49
-0.25
49
0
49
-0.25
0
LTYPE
2
DIVIDE
70
0
3
__ . . __ . . __ . . __ . . __ . . __ . . __
72
65
73
6
40
1.25
49
0.5
49
-0.25
49
0
49
-0.25
49
0
49
-0.25
0
LTYPE
2
DOTS
70
0
3
close
72
65
73
2
40
0.1
49
0.05
49
-0.05
0
ENDTAB
0
TABLE
2
LAYER
70
10
0
LAYER
2
1
70
0
62
7
6
CONTINUOUS
0
LAYER
2
2
70
0
62
7
6
CONTINUOUS
0
LAYER
2
3
70
0
62
7
6
CONTINUOUS
0
LAYER
2
4
70
0
62
7
6
CONTINUOUS
0
LAYER
2
5
70
0
62
7
6
CONTINUOUS
0
LAYER
2
6
70
0
62
7
6
CONTINUOUS
0
LAYER
2
7
70
0
62
7
6
CONTINUOUS
0
LAYER
2
8
70
0
62
7
6
CONTINUOUS
0
LAYER
2
9
70
0
62
7
6
CONTINUOUS
0
LAYER
2
10
70
0
62
7
6
CONTINUOUS
0
ENDTAB
0
ENDSEC
0
SECTION
2
ENTITIES
0
ARC
8
1
62
7
10
5.773092
20
4.514096
40
0.2530378
50
272.4367
51
87.56326
0
ARC
8
1
62
7
10
5.773092
20
3.50286
40
0.2530378
50
272.4367
51
87.56326
0
ARC
8
1
62
7
10
5.773092
20
4.028703
40
0.2530378
50
272.4367
51
87.56326
0
ARC
8
1
62
7
10
5.773092
20
5.505107
40
0.2530378
50
272.4367
51
87.56326
0
ARC
8
1
62
7
10
5.773092
20
4.999489
40
0.2530378
50
272.4367
51
87.56326
0
ARC
8
1
62
7
10
5.773092
20
6.010725
40
0.2530378
50
272.4367
51
87.56326
0
ARC
8
1
62
7
10
5.789764
20
6.496118
40
0.2530378
50
272.4367
51
87.56326
0
TEXT
8
1
62
7
10
5.300413
20
2.152476
40
0.168
1
Step Down Transformer
41
0.7
7
MONOTXT
0
LINE
8
1
62
7
10
3.275049
20
3.250051
11
5.78385
21
3.250051
0
LINE
8
1
62
7
10
3.275049
20
6.748928
11
5.78385
21
6.748928
0
LINE
8
1
62
7
10
6.790839
20
2.992033
11
6.790839
21
6.976303
0
LINE
8
1
62
7
10
6.612658
20
6.981804
11
6.612658
21
2.991765
0
ARC
8
1
62
7
10
7.423171
20
4.529418
40
0.2328542
50
87.24113
51
272.7589
0
LINE
8
1
62
7
10
6.400048
20
2.992033
11
6.400048
21
6.976303
0
LINE
8
1
62
7
10
9.172935
20
4.291931
11
7.434379
21
4.291931
0
LINE
8
1
62
7
10
9.194942
20
5.717467
11
7.434379
21
5.717467
0
ARC
8
1
62
7
10
7.423171
20
5.484882
40
0.2328542
50
87.24113
51
272.7589
0
ARC
8
1
62
7
10
7.406498
20
5.014811
40
0.2328542
50
87.24113
51
272.7589
0
ENDSEC
0
EOF
