  0
SECTION
  2
HEADER
  9
$ACADVER
  1
AC1009
  9
$INSBASE
 10
0.0
 20
0.0
 30
0.0
  9
$EXTMIN
 10
1.113795
 20
-3.678261
 30
0.0
  9
$EXTMAX
 10
13.04358
 20
6.782609
 30
0.0
  9
$LIMMIN
 10
0.0
 20
0.0
  9
$LIMMAX
 10
12.0
 20
9.0
  9
$ORTHOMODE
 70
     1
  9
$REGENMODE
 70
     1
  9
$FILLMODE
 70
     1
  9
$QTEXTMODE
 70
     0
  9
$MIRRTEXT
 70
     1
  9
$DRAGMODE
 70
     2
  9
$LTSCALE
 40
1.0
  9
$OSMODE
 70
     0
  9
$ATTMODE
 70
     1
  9
$TEXTSIZE
 40
0.2
  9
$TRACEWID
 40
0.05
  9
$TEXTSTYLE
  7
STANDARD
  9
$CLAYER
  8
0
  9
$CELTYPE
  6
BYLAYER
  9
$CECOLOR
 62
   256
  9
$DIMSCALE
 40
1.0
  9
$DIMASZ
 40
0.18
  9
$DIMEXO
 40
0.0625
  9
$DIMDLI
 40
0.38
  9
$DIMRND
 40
0.0
  9
$DIMDLE
 40
0.0
  9
$DIMEXE
 40
0.18
  9
$DIMTP
 40
0.0
  9
$DIMTM
 40
0.0
  9
$DIMTXT
 40
0.18
  9
$DIMCEN
 40
0.09
  9
$DIMTSZ
 40
0.0
  9
$DIMTOL
 70
     0
  9
$DIMLIM
 70
     0
  9
$DIMTIH
 70
     1
  9
$DIMTOH
 70
     1
  9
$DIMSE1
 70
     0
  9
$DIMSE2
 70
     0
  9
$DIMTAD
 70
     0
  9
$DIMZIN
 70
     0
  9
$DIMBLK
  1

  9
$DIMASO
 70
     1
  9
$DIMSHO
 70
     1
  9
$DIMPOST
  1

  9
$DIMAPOST
  1

  9
$DIMALT
 70
     0
  9
$DIMALTD
 70
     2
  9
$DIMALTF
 40
25.4
  9
$DIMLFAC
 40
1.0
  9
$DIMTOFL
 70
     0
  9
$DIMTVP
 40
0.0
  9
$DIMTIX
 70
     0
  9
$DIMSOXD
 70
     0
  9
$DIMSAH
 70
     0
  9
$DIMBLK1
  1

  9
$DIMBLK2
  1

  9
$DIMSTYLE
  2
*UNNAMED
  9
$DIMCLRD
 70
     0
  9
$DIMCLRE
 70
     0
  9
$DIMCLRT
 70
     0
  9
$DIMTFAC
 40
1.0
  9
$DIMGAP
 40
0.09
  9
$LUNITS
 70
     2
  9
$LUPREC
 70
     4
  9
$SKETCHINC
 40
0.1
  9
$FILLETRAD
 40
0.13
  9
$AUNITS
 70
     0
  9
$AUPREC
 70
     0
  9
$MENU
  1
acad
  9
$ELEVATION
 40
0.0
  9
$PELEVATION
 40
0.0
  9
$THICKNESS
 40
0.0
  9
$LIMCHECK
 70
     0
  9
$BLIPMODE
 70
     0
  9
$CHAMFERA
 40
0.0
  9
$CHAMFERB
 40
0.0
  9
$SKPOLY
 70
     0
  9
$TDCREATE
 40
2449775.778821874
  9
$TDUPDATE
 40
2449776.359814004
  9
$TDINDWG
 40
0.0390554398
  9
$TDUSRTIMER
 40
0.0390554398
  9
$USRTIMER
 70
     1
  9
$ANGBASE
 50
0.0
  9
$ANGDIR
 70
     0
  9
$PDMODE
 70
     0
  9
$PDSIZE
 40
0.0
  9
$PLINEWID
 40
0.2
  9
$COORDS
 70
     1
  9
$SPLFRAME
 70
     0
  9
$SPLINETYPE
 70
     6
  9
$SPLINESEGS
 70
     8
  9
$ATTDIA
 70
     0
  9
$ATTREQ
 70
     1
  9
$HANDLING
 70
     0
  9
$HANDSEED
  5
0
  9
$SURFTAB1
 70
     6
  9
$SURFTAB2
 70
     6
  9
$SURFTYPE
 70
     6
  9
$SURFU
 70
     6
  9
$SURFV
 70
     6
  9
$UCSNAME
  2

  9
$UCSORG
 10
0.0
 20
0.0
 30
0.0
  9
$UCSXDIR
 10
1.0
 20
0.0
 30
0.0
  9
$UCSYDIR
 10
0.0
 20
1.0
 30
0.0
  9
$PUCSNAME
  2

  9
$PUCSORG
 10
0.0
 20
0.0
 30
0.0
  9
$PUCSXDIR
 10
1.0
 20
0.0
 30
0.0
  9
$PUCSYDIR
 10
0.0
 20
1.0
 30
0.0
  9
$USERI1
 70
     0
  9
$USERI2
 70
     0
  9
$USERI3
 70
     0
  9
$USERI4
 70
     0
  9
$USERI5
 70
     0
  9
$USERR1
 40
0.0
  9
$USERR2
 40
0.0
  9
$USERR3
 40
0.0
  9
$USERR4
 40
0.0
  9
$USERR5
 40
0.0
  9
$WORLDVIEW
 70
     1
  9
$SHADEDGE
 70
     3
  9
$SHADEDIF
 70
    70
  9
$TILEMODE
 70
     1
  9
$MAXACTVP
 70
    16
  9
$PINSBASE
 10
0.0
 20
0.0
 30
0.0
  9
$PLIMCHECK
 70
     0
  9
$PEXTMIN
 10
1.000000E+20
 20
1.000000E+20
 30
1.000000E+20
  9
$PEXTMAX
 10
-1.000000E+20
 20
-1.000000E+20
 30
-1.000000E+20
  9
$PLIMMIN
 10
0.0
 20
0.0
  9
$PLIMMAX
 10
12.0
 20
9.0
  9
$UNITMODE
 70
     0
  9
$VISRETAIN
 70
     0
  9
$PLINEGEN
 70
     0
  9
$PSLTSCALE
 70
     1
  9
$TREEDEPTH
 70
  3020
  9
$DWGCODEPAGE
  3
ascii
  0
ENDSEC
  0
SECTION
  2
TABLES
  0
TABLE
  2
VPORT
 70
     2
  0
VPORT
  2
*ACTIVE
 70
     0
 10
0.0
 20
0.0
 11
1.0
 21
1.0
 12
6.243341
 22
1.473913
 13
0.0
 23
0.0
 14
1.0
 24
1.0
 15
0.0
 25
0.0
 16
0.0
 26
0.0
 36
1.0
 17
0.0
 27
0.0
 37
0.0
 40
10.8
 41
1.387409
 42
50.0
 43
0.0
 44
0.0
 50
0.0
 51
0.0
 71
     0
 72
   100
 73
     1
 74
     1
 75
     0
 76
     0
 77
     0
 78
     0
  0
ENDTAB
  0
TABLE
  2
LTYPE
 70
     1
  0
LTYPE
  2
CONTINUOUS
 70
    64
  3
Solid line
 72
    65
 73
     0
 40
0.0
  0
ENDTAB
  0
TABLE
  2
LAYER
 70
     1
  0
LAYER
  2
0
 70
    64
 62
     7
  6
CONTINUOUS
  0
ENDTAB
  0
TABLE
  2
STYLE
 70
     1
  0
STYLE
  2
STANDARD
 70
    64
 40
0.0
 41
1.0
 50
0.0
 71
     0
 42
0.2
  3
txt
  4

  0
ENDTAB
  0
TABLE
  2
VIEW
 70
     0
  0
ENDTAB
  0
TABLE
  2
UCS
 70
     0
  0
ENDTAB
  0
TABLE
  2
APPID
 70
     1
  0
APPID
  2
ACAD
 70
    64
  0
ENDTAB
  0
TABLE
  2
DIMSTYLE
 70
     0
  0
ENDTAB
  0
ENDSEC
  0
SECTION
  2
BLOCKS
  0
BLOCK
  8
0
  2
RESISTOR
 70
    66
 10
0.0
 20
0.0
 30
0.0
  3
RESISTOR
  0
ATTDEF
  8
0
 10
0.728931
 20
-0.804815
 30
0.0
 40
0.2
  1
.5
  3
Watts?
  2
POWER
 70
     1
 72
     1
 11
1.228931
 21
-0.804815
 31
0.0
  0
ATTDEF
  8
0
 10
0.628931
 20
-0.471482
 30
0.0
 40
0.2
  1
110
  3
Resistance?
  2
RVALUE
 70
     1
 72
     1
 11
1.228931
 21
-0.471482
 31
0.0
  0
ATTDEF
  8
0
 10
0.864343
 20
-0.108356
 30
0.0
 40
0.2
  1
R1
  3
R?
  2
R-ID
 70
     0
 72
     1
 11
1.197676
 21
-0.108356
 31
0.0
  0
POLYLINE
  8
0
 66
     1
 10
0.0
 20
0.0
 30
0.0
 70
     1
  0
VERTEX
  8
0
 10
0.587353
 20
0.152174
 30
0.0
  0
VERTEX
  8
0
 10
0.587353
 20
-0.152174
 30
0.0
  0
VERTEX
  8
0
 10
1.827319
 20
-0.152174
 30
0.0
  0
VERTEX
  8
0
 10
1.827319
 20
0.152174
 30
0.0
  0
SEQEND
  8
0
  0
LINE
  8
0
 10
0.587353
 20
0.0
 30
0.0
 11
0.0
 21
0.0
 31
0.0
  0
POLYLINE
  8
0
 66
     1
 10
0.0
 20
0.0
 30
0.0
 70
     1
 40
0.075
 41
0.075
  0
VERTEX
  8
0
 10
0.0375
 20
0.0
 30
0.0
 42
-1.0
  0
VERTEX
  8
0
 10
-0.0375
 20
0.0
 30
0.0
 42
-1.0
  0
SEQEND
  8
0
  0
LINE
  8
0
 10
1.827319
 20
0.0
 30
0.0
 11
2.414672
 21
0.0
 31
0.0
  0
POLYLINE
  8
0
 66
     1
 10
0.0
 20
0.0
 30
0.0
 70
     1
 40
0.075
 41
0.075
  0
VERTEX
  8
0
 10
2.377172
 20
0.0
 30
0.0
 42
1.0
  0
VERTEX
  8
0
 10
2.452172
 20
0.0
 30
0.0
 42
1.0
  0
SEQEND
  8
0
  0
ENDBLK
  8
0
  0
BLOCK
  8
0
  2
DIODE
 70
    66
 10
0.0
 20
0.0
 30
0.0
  3
DIODE
  0
ATTDEF
  8
0
 10
0.391686
 20
-0.537451
 30
0.0
 40
0.2
  1
1N707
  3
Part Number?
  2
PARTNUM
 70
     1
  0
ATTDEF
  8
0
 10
0.483653
 20
0.326675
 30
0.0
 40
0.2
  1
D1
  3
D?
  2
D-ID
 70
     0
 72
     1
 11
0.816987
 21
0.326675
 31
0.0
  0
POLYLINE
  8
0
 66
     1
 10
0.0
 20
0.0
 30
0.0
 70
     1
  0
VERTEX
  8
0
 10
0.435076
 20
0.108696
 30
0.0
  0
VERTEX
  8
0
 10
0.435076
 20
-0.108696
 30
0.0
  0
VERTEX
  8
0
 10
0.891906
 20
-0.108696
 30
0.0
  0
VERTEX
  8
0
 10
0.891906
 20
0.108696
 30
0.0
  0
SEQEND
  8
0
  0
LINE
  8
0
 10
0.435076
 20
0.0
 30
0.0
 11
0.0
 21
0.0
 31
0.0
  0
POLYLINE
  8
0
 66
     1
 10
0.0
 20
0.0
 30
0.0
 70
     1
 40
0.075
 41
0.075
  0
VERTEX
  8
0
 10
0.0375
 20
0.0
 30
0.0
 42
-1.0
  0
VERTEX
  8
0
 10
-0.0375
 20
0.0
 30
0.0
 42
-1.0
  0
SEQEND
  8
0
  0
POLYLINE
  8
0
 66
     1
 10
0.0
 20
0.0
 30
0.0
 70
     1
 40
0.075
 41
0.075
  0
VERTEX
  8
0
 10
1.572281
 20
0.0
 30
0.0
 42
1.0
  0
VERTEX
  8
0
 10
1.647281
 20
0.0
 30
0.0
 42
1.0
  0
SEQEND
  8
0
  0
LINE
  8
0
 10
1.174705
 20
0.0
 30
0.0
 11
1.609781
 21
0.0
 31
0.0
  0
POLYLINE
  8
0
 66
     1
 10
0.0
 20
0.0
 30
0.0
 70
     1
  0
VERTEX
  8
0
 10
0.891906
 20
-0.271739
 30
0.0
  0
VERTEX
  8
0
 10
0.891906
 20
0.271739
 30
0.0
  0
VERTEX
  8
0
 10
1.174705
 20
0.271739
 30
0.0
  0
VERTEX
  8
0
 10
1.174705
 20
-0.271739
 30
0.0
  0
SEQEND
  8
0
  0
ENDBLK
  8
0
  0
BLOCK
  8
0
  2
INT-CKT
 70
    66
 10
0.0
 20
0.0
 30
0.0
  3
INT-CKT
  0
ATTDEF
  8
0
 10
0.21919
 20
-0.21417
 30
0.0
 40
0.2
  1
7400
  3
Part Number?
  2
PARTNO
 70
     1
 72
     1
 11
0.785857
 21
-0.21417
 31
0.0
  0
LINE
  8
0
 10
0.0
 20
0.026891
 30
0.0
 11
1.609592
 21
0.026891
 31
0.0
  0
LINE
  8
0
 10
0.0
 20
0.525526
 30
0.0
 11
1.609592
 21
0.525526
 31
0.0
  0
LINE
  8
0
 10
0.0
 20
0.0
 30
0.0
 11
1.609592
 21
0.0
 31
0.0
  0
LINE
  8
0
 10
0.0
 20
0.552416
 30
0.0
 11
1.609592
 21
0.552416
 31
0.0
  0
ATTDEF
  8
0
 10
0.452524
 20
0.119163
 30
0.0
 40
0.2
  1
Q1
  3
Q?
  2
Q-ID
 70
     0
 72
     1
 11
0.785857
 21
0.119163
 31
0.0
  0
ARC
  8
0
 10
0.0
 20
0.276208
 30
0.0
 40
0.067102
 50
270.0
 51
90.0
  0
LINE
  8
0
 10
0.0
 20
0.209106
 30
0.0
 11
0.0
 21
0.0
 31
0.0
  0
POLYLINE
  8
0
 66
     1
 10
0.0
 20
0.0
 30
0.0
 70
     1
  0
VERTEX
  8
0
 10
0.119644
 20
0.0
 30
0.0
  0
VERTEX
  8
0
 10
0.119644
 20
-0.032269
 30
0.0
  0
VERTEX
  8
0
 10
0.238043
 20
-0.032269
 30
0.0
  0
VERTEX
  8
0
 10
0.238043
 20
0.0
 30
0.0
  0
SEQEND
  8
0
  0
POLYLINE
  8
0
 66
     1
 10
0.0
 20
0.0
 30
0.0
 70
     1
  0
VERTEX
  8
0
 10
0.160008
 20
-0.032269
 30
0.0
  0
VERTEX
  8
0
 10
0.160008
 20
-0.059159
 30
0.0
  0
VERTEX
  8
0
 10
0.19768
 20
-0.059159
 30
0.0
  0
VERTEX
  8
0
 10
0.19768
 20
-0.032269
 30
0.0
  0
SEQEND
  8
0
  0
POLYLINE
  8
0
 66
     1
 10
0.0
 20
0.0
 30
0.0
 70
     1
  0
VERTEX
  8
0
 10
0.656175
 20
0.0
 30
0.0
  0
VERTEX
  8
0
 10
0.656175
 20
-0.032269
 30
0.0
  0
VERTEX
  8
0
 10
0.774573
 20
-0.032269
 30
0.0
  0
VERTEX
  8
0
 10
0.774573
 20
0.0
 30
0.0
  0
SEQEND
  8
0
  0
POLYLINE
  8
0
 66
     1
 10
0.0
 20
0.0
 30
0.0
 70
     1
  0
VERTEX
  8
0
 10
0.696538
 20
-0.032269
 30
0.0
  0
VERTEX
  8
0
 10
0.696538
 20
-0.059159
 30
0.0
  0
VERTEX
  8
0
 10
0.73421
 20
-0.059159
 30
0.0
  0
VERTEX
  8
0
 10
0.73421
 20
-0.032269
 30
0.0
  0
SEQEND
  8
0
  0
POLYLINE
  8
0
 66
     1
 10
0.0
 20
0.0
 30
0.0
 70
     1
  0
VERTEX
  8
0
 10
0.477332
 20
0.0
 30
0.0
  0
VERTEX
  8
0
 10
0.477332
 20
-0.032269
 30
0.0
  0
VERTEX
  8
0
 10
0.59573
 20
-0.032269
 30
0.0
  0
VERTEX
  8
0
 10
0.59573
 20
0.0
 30
0.0
  0
SEQEND
  8
0
  0
POLYLINE
  8
0
 66
     1
 10
0.0
 20
0.0
 30
0.0
 70
     1
  0
VERTEX
  8
0
 10
0.298488
 20
0.0
 30
0.0
  0
VERTEX
  8
0
 10
0.298488
 20
-0.032269
 30
0.0
  0
VERTEX
  8
0
 10
0.416886
 20
-0.032269
 30
0.0
  0
VERTEX
  8
0
 10
0.416886
 20
0.0
 30
0.0
  0
SEQEND
  8
0
  0
POLYLINE
  8
0
 66
     1
 10
0.0
 20
0.0
 30
0.0
 70
     1
  0
VERTEX
  8
0
 10
0.338851
 20
-0.032269
 30
0.0
  0
VERTEX
  8
0
 10
0.338851
 20
-0.059159
 30
0.0
  0
VERTEX
  8
0
 10
0.376523
 20
-0.059159
 30
0.0
  0
VERTEX
  8
0
 10
0.376523
 20
-0.032269
 30
0.0
  0
SEQEND
  8
0
  0
POLYLINE
  8
0
 66
     1
 10
0.0
 20
0.0
 30
0.0
 70
     1
  0
VERTEX
  8
0
 10
0.517695
 20
-0.032269
 30
0.0
  0
VERTEX
  8
0
 10
0.517695
 20
-0.059159
 30
0.0
  0
VERTEX
  8
0
 10
0.555367
 20
-0.059159
 30
0.0
  0
VERTEX
  8
0
 10
0.555367
 20
-0.032269
 30
0.0
  0
SEQEND
  8
0
  0
POLYLINE
  8
0
 66
     1
 10
0.0
 20
0.0
 30
0.0
 70
     1
  0
VERTEX
  8
0
 10
0.835019
 20
0.0
 30
0.0
  0
VERTEX
  8
0
 10
0.835019
 20
-0.032269
 30
0.0
  0
VERTEX
  8
0
 10
0.953417
 20
-0.032269
 30
0.0
  0
VERTEX
  8
0
 10
0.953417
 20
0.0
 30
0.0
  0
SEQEND
  8
0
  0
POLYLINE
  8
0
 66
     1
 10
0.0
 20
0.0
 30
0.0
 70
     1
  0
VERTEX
  8
0
 10
0.875382
 20
-0.032269
 30
0.0
  0
VERTEX
  8
0
 10
0.875382
 20
-0.059159
 30
0.0
  0
VERTEX
  8
0
 10
0.913054
 20
-0.059159
 30
0.0
  0
VERTEX
  8
0
 10
0.913054
 20
-0.032269
 30
0.0
  0
SEQEND
  8
0
  0
POLYLINE
  8
0
 66
     1
 10
0.0
 20
0.0
 30
0.0
 70
     1
  0
VERTEX
  8
0
 10
1.013862
 20
0.0
 30
0.0
  0
VERTEX
  8
0
 10
1.013862
 20
-0.032269
 30
0.0
  0
VERTEX
  8
0
 10
1.132261
 20
-0.032269
 30
0.0
  0
VERTEX
  8
0
 10
1.132261
 20
0.0
 30
0.0
  0
SEQEND
  8
0
  0
POLYLINE
  8
0
 66
     1
 10
0.0
 20
0.0
 30
0.0
 70
     1
  0
VERTEX
  8
0
 10
1.054225
 20
-0.032269
 30
0.0
  0
VERTEX
  8
0
 10
1.054225
 20
-0.059159
 30
0.0
  0
VERTEX
  8
0
 10
1.091897
 20
-0.059159
 30
0.0
  0
VERTEX
  8
0
 10
1.091897
 20
-0.032269
 30
0.0
  0
SEQEND
  8
0
  0
LINE
  8
0
 10
0.0
 20
0.552416
 30
0.0
 11
0.0
 21
0.34331
 31
0.0
  0
POLYLINE
  8
0
 66
     1
 10
0.0
 20
0.0
 30
0.0
 70
     1
  0
VERTEX
  8
0
 10
0.119644
 20
0.552416
 30
0.0
  0
VERTEX
  8
0
 10
0.119644
 20
0.584685
 30
0.0
  0
VERTEX
  8
0
 10
0.238043
 20
0.584685
 30
0.0
  0
VERTEX
  8
0
 10
0.238043
 20
0.552416
 30
0.0
  0
SEQEND
  8
0
  0
POLYLINE
  8
0
 66
     1
 10
0.0
 20
0.0
 30
0.0
 70
     1
  0
VERTEX
  8
0
 10
0.160008
 20
0.584685
 30
0.0
  0
VERTEX
  8
0
 10
0.160008
 20
0.611575
 30
0.0
  0
VERTEX
  8
0
 10
0.19768
 20
0.611575
 30
0.0
  0
VERTEX
  8
0
 10
0.19768
 20
0.584685
 30
0.0
  0
SEQEND
  8
0
  0
POLYLINE
  8
0
 66
     1
 10
0.0
 20
0.0
 30
0.0
 70
     1
  0
VERTEX
  8
0
 10
0.696538
 20
0.584685
 30
0.0
  0
VERTEX
  8
0
 10
0.696538
 20
0.611575
 30
0.0
  0
VERTEX
  8
0
 10
0.73421
 20
0.611575
 30
0.0
  0
VERTEX
  8
0
 10
0.73421
 20
0.584685
 30
0.0
  0
SEQEND
  8
0
  0
POLYLINE
  8
0
 66
     1
 10
0.0
 20
0.0
 30
0.0
 70
     1
  0
VERTEX
  8
0
 10
0.656175
 20
0.552416
 30
0.0
  0
VERTEX
  8
0
 10
0.656175
 20
0.584685
 30
0.0
  0
VERTEX
  8
0
 10
0.774573
 20
0.584685
 30
0.0
  0
VERTEX
  8
0
 10
0.774573
 20
0.552416
 30
0.0
  0
SEQEND
  8
0
  0
POLYLINE
  8
0
 66
     1
 10
0.0
 20
0.0
 30
0.0
 70
     1
  0
VERTEX
  8
0
 10
0.477332
 20
0.552416
 30
0.0
  0
VERTEX
  8
0
 10
0.477332
 20
0.584685
 30
0.0
  0
VERTEX
  8
0
 10
0.59573
 20
0.584685
 30
0.0
  0
VERTEX
  8
0
 10
0.59573
 20
0.552416
 30
0.0
  0
SEQEND
  8
0
  0
POLYLINE
  8
0
 66
     1
 10
0.0
 20
0.0
 30
0.0
 70
     1
  0
VERTEX
  8
0
 10
0.338851
 20
0.584685
 30
0.0
  0
VERTEX
  8
0
 10
0.338851
 20
0.611575
 30
0.0
  0
VERTEX
  8
0
 10
0.376523
 20
0.611575
 30
0.0
  0
VERTEX
  8
0
 10
0.376523
 20
0.584685
 30
0.0
  0
SEQEND
  8
0
  0
POLYLINE
  8
0
 66
     1
 10
0.0
 20
0.0
 30
0.0
 70
     1
  0
VERTEX
  8
0
 10
0.298488
 20
0.552416
 30
0.0
  0
VERTEX
  8
0
 10
0.298488
 20
0.584685
 30
0.0
  0
VERTEX
  8
0
 10
0.416886
 20
0.584685
 30
0.0
  0
VERTEX
  8
0
 10
0.416886
 20
0.552416
 30
0.0
  0
SEQEND
  8
0
  0
POLYLINE
  8
0
 66
     1
 10
0.0
 20
0.0
 30
0.0
 70
     1
  0
VERTEX
  8
0
 10
0.517695
 20
0.584685
 30
0.0
  0
VERTEX
  8
0
 10
0.517695
 20
0.611575
 30
0.0
  0
VERTEX
  8
0
 10
0.555367
 20
0.611575
 30
0.0
  0
VERTEX
  8
0
 10
0.555367
 20
0.584685
 30
0.0
  0
SEQEND
  8
0
  0
POLYLINE
  8
0
 66
     1
 10
0.0
 20
0.0
 30
0.0
 70
     1
  0
VERTEX
  8
0
 10
0.835019
 20
0.552416
 30
0.0
  0
VERTEX
  8
0
 10
0.835019
 20
0.584685
 30
0.0
  0
VERTEX
  8
0
 10
0.953417
 20
0.584685
 30
0.0
  0
VERTEX
  8
0
 10
0.953417
 20
0.552416
 30
0.0
  0
SEQEND
  8
0
  0
POLYLINE
  8
0
 66
     1
 10
0.0
 20
0.0
 30
0.0
 70
     1
  0
VERTEX
  8
0
 10
0.875382
 20
0.584685
 30
0.0
  0
VERTEX
  8
0
 10
0.875382
 20
0.611575
 30
0.0
  0
VERTEX
  8
0
 10
0.913054
 20
0.611575
 30
0.0
  0
VERTEX
  8
0
 10
0.913054
 20
0.584685
 30
0.0
  0
SEQEND
  8
0
  0
POLYLINE
  8
0
 66
     1
 10
0.0
 20
0.0
 30
0.0
 70
     1
  0
VERTEX
  8
0
 10
1.054225
 20
0.584685
 30
0.0
  0
VERTEX
  8
0
 10
1.054225
 20
0.611575
 30
0.0
  0
VERTEX
  8
0
 10
1.091897
 20
0.611575
 30
0.0
  0
VERTEX
  8
0
 10
1.091897
 20
0.584685
 30
0.0
  0
SEQEND
  8
0
  0
POLYLINE
  8
0
 66
     1
 10
0.0
 20
0.0
 30
0.0
 70
     1
  0
VERTEX
  8
0
 10
1.013862
 20
0.552416
 30
0.0
  0
VERTEX
  8
0
 10
1.013862
 20
0.584685
 30
0.0
  0
VERTEX
  8
0
 10
1.132261
 20
0.584685
 30
0.0
  0
VERTEX
  8
0
 10
1.132261
 20
0.552416
 30
0.0
  0
SEQEND
  8
0
  0
LINE
  8
0
 10
1.609592
 20
0.552416
 30
0.0
 11
1.609592
 21
0.0
 31
0.0
  0
POLYLINE
  8
0
 66
     1
 10
0.0
 20
0.0
 30
0.0
 70
     1
  0
VERTEX
  8
0
 10
1.371549
 20
0.0
 30
0.0
  0
VERTEX
  8
0
 10
1.371549
 20
-0.032269
 30
0.0
  0
VERTEX
  8
0
 10
1.489948
 20
-0.032269
 30
0.0
  0
VERTEX
  8
0
 10
1.489948
 20
0.0
 30
0.0
  0
SEQEND
  8
0
  0
POLYLINE
  8
0
 66
     1
 10
0.0
 20
0.0
 30
0.0
 70
     1
  0
VERTEX
  8
0
 10
1.411913
 20
-0.032269
 30
0.0
  0
VERTEX
  8
0
 10
1.411913
 20
-0.059159
 30
0.0
  0
VERTEX
  8
0
 10
1.449585
 20
-0.059159
 30
0.0
  0
VERTEX
  8
0
 10
1.449585
 20
-0.032269
 30
0.0
  0
SEQEND
  8
0
  0
POLYLINE
  8
0
 66
     1
 10
0.0
 20
0.0
 30
0.0
 70
     1
  0
VERTEX
  8
0
 10
1.192706
 20
0.0
 30
0.0
  0
VERTEX
  8
0
 10
1.192706
 20
-0.032269
 30
0.0
  0
VERTEX
  8
0
 10
1.311104
 20
-0.032269
 30
0.0
  0
VERTEX
  8
0
 10
1.311104
 20
0.0
 30
0.0
  0
SEQEND
  8
0
  0
POLYLINE
  8
0
 66
     1
 10
0.0
 20
0.0
 30
0.0
 70
     1
  0
VERTEX
  8
0
 10
1.233069
 20
-0.032269
 30
0.0
  0
VERTEX
  8
0
 10
1.233069
 20
-0.059159
 30
0.0
  0
VERTEX
  8
0
 10
1.270741
 20
-0.059159
 30
0.0
  0
VERTEX
  8
0
 10
1.270741
 20
-0.032269
 30
0.0
  0
SEQEND
  8
0
  0
POLYLINE
  8
0
 66
     1
 10
0.0
 20
0.0
 30
0.0
 70
     1
  0
VERTEX
  8
0
 10
1.411913
 20
0.584685
 30
0.0
  0
VERTEX
  8
0
 10
1.411913
 20
0.611575
 30
0.0
  0
VERTEX
  8
0
 10
1.449585
 20
0.611575
 30
0.0
  0
VERTEX
  8
0
 10
1.449585
 20
0.584685
 30
0.0
  0
SEQEND
  8
0
  0
POLYLINE
  8
0
 66
     1
 10
0.0
 20
0.0
 30
0.0
 70
     1
  0
VERTEX
  8
0
 10
1.371549
 20
0.552416
 30
0.0
  0
VERTEX
  8
0
 10
1.371549
 20
0.584685
 30
0.0
  0
VERTEX
  8
0
 10
1.489948
 20
0.584685
 30
0.0
  0
VERTEX
  8
0
 10
1.489948
 20
0.552416
 30
0.0
  0
SEQEND
  8
0
  0
POLYLINE
  8
0
 66
     1
 10
0.0
 20
0.0
 30
0.0
 70
     1
  0
VERTEX
  8
0
 10
1.192706
 20
0.552416
 30
0.0
  0
VERTEX
  8
0
 10
1.192706
 20
0.584685
 30
0.0
  0
VERTEX
  8
0
 10
1.311104
 20
0.584685
 30
0.0
  0
VERTEX
  8
0
 10
1.311104
 20
0.552416
 30
0.0
  0
SEQEND
  8
0
  0
POLYLINE
  8
0
 66
     1
 10
0.0
 20
0.0
 30
0.0
 70
     1
  0
VERTEX
  8
0
 10
1.233069
 20
0.584685
 30
0.0
  0
VERTEX
  8
0
 10
1.233069
 20
0.611575
 30
0.0
  0
VERTEX
  8
0
 10
1.270741
 20
0.611575
 30
0.0
  0
VERTEX
  8
0
 10
1.270741
 20
0.584685
 30
0.0
  0
SEQEND
  8
0
  0
ENDBLK
  8
0
  0
ENDSEC
  0
SECTION
  2
ENTITIES
  0
INSERT
  8
0
 66
     1
  2
RESISTOR
 10
2.825819
 20
0.771739
 30
0.0
  0
ATTRIB
  8
0
 10
3.85475
 20
-0.033076
 30
0.0
 40
0.2
  1
.25
  2
POWER
 70
     1
 72
     1
 11
4.05475
 21
-0.033076
 31
0.0
  0
ATTRIB
  8
0
 10
3.921416
 20
0.300258
 30
0.0
 40
0.2
  1
1K
  2
RVALUE
 70
     1
 72
     1
 11
4.05475
 21
0.300258
 31
0.0
  0
ATTRIB
  8
0
 10
3.890162
 20
0.663383
 30
0.0
 40
0.2
  1
R1
  2
R-ID
 70
     0
 72
     1
 11
4.023495
 21
0.663383
 31
0.0
  0
SEQEND
  8
0
  0
INSERT
  8
0
 66
     1
  2
RESISTOR
 10
2.825819
 20
1.358696
 30
0.0
  0
ATTRIB
  8
0
 10
3.85475
 20
0.553881
 30
0.0
 40
0.2
  1
.25
  2
POWER
 70
     1
 72
     1
 11
4.05475
 21
0.553881
 31
0.0
  0
ATTRIB
  8
0
 10
3.921416
 20
0.887214
 30
0.0
 40
0.2
  1
1K
  2
RVALUE
 70
     1
 72
     1
 11
4.05475
 21
0.887214
 31
0.0
  0
ATTRIB
  8
0
 10
3.856828
 20
1.25034
 30
0.0
 40
0.2
  1
R2
  2
R-ID
 70
     0
 72
     1
 11
4.023495
 21
1.25034
 31
0.0
  0
SEQEND
  8
0
  0
INSERT
  8
0
 66
     1
  2
RESISTOR
 10
2.825819
 20
1.945652
 30
0.0
  0
ATTRIB
  8
0
 10
3.85475
 20
1.140837
 30
0.0
 40
0.2
  1
.25
  2
POWER
 70
     1
 72
     1
 11
4.05475
 21
1.140837
 31
0.0
  0
ATTRIB
  8
0
 10
3.75475
 20
1.474171
 30
0.0
 40
0.2
  1
2.2K
  2
RVALUE
 70
     1
 72
     1
 11
4.05475
 21
1.474171
 31
0.0
  0
ATTRIB
  8
0
 10
3.856828
 20
1.837296
 30
0.0
 40
0.2
  1
R3
  2
R-ID
 70
     0
 72
     1
 11
4.023495
 21
1.837296
 31
0.0
  0
SEQEND
  8
0
  0
INSERT
  8
0
 66
     1
  2
RESISTOR
 10
2.825819
 20
2.532609
 30
0.0
  0
ATTRIB
  8
0
 10
3.85475
 20
1.727794
 30
0.0
 40
0.2
  1
.25
  2
POWER
 70
     1
 72
     1
 11
4.05475
 21
1.727794
 31
0.0
  0
ATTRIB
  8
0
 10
3.75475
 20
2.061127
 30
0.0
 40
0.2
  1
2.2K
  2
RVALUE
 70
     1
 72
     1
 11
4.05475
 21
2.061127
 31
0.0
  0
ATTRIB
  8
0
 10
3.856828
 20
2.424253
 30
0.0
 40
0.2
  1
R4
  2
R-ID
 70
     0
 72
     1
 11
4.023495
 21
2.424253
 31
0.0
  0
SEQEND
  8
0
  0
INSERT
  8
0
 66
     1
  2
RESISTOR
 10
2.825819
 20
3.119565
 30
0.0
  0
ATTRIB
  8
0
 10
3.85475
 20
2.31475
 30
0.0
 40
0.2
  1
.25
  2
POWER
 70
     1
 72
     1
 11
4.05475
 21
2.31475
 31
0.0
  0
ATTRIB
  8
0
 10
3.75475
 20
2.648084
 30
0.0
 40
0.2
  1
2.2K
  2
RVALUE
 70
     1
 72
     1
 11
4.05475
 21
2.648084
 31
0.0
  0
ATTRIB
  8
0
 10
3.856828
 20
3.011209
 30
0.0
 40
0.2
  1
R5
  2
R-ID
 70
     0
 72
     1
 11
4.023495
 21
3.011209
 31
0.0
  0
SEQEND
  8
0
  0
INSERT
  8
0
 66
     1
  2
RESISTOR
 10
2.825819
 20
3.706522
 30
0.0
  0
ATTRIB
  8
0
 10
3.85475
 20
2.901707
 30
0.0
 40
0.2
  1
.25
  2
POWER
 70
     1
 72
     1
 11
4.05475
 21
2.901707
 31
0.0
  0
ATTRIB
  8
0
 10
3.788083
 20
3.23504
 30
0.0
 40
0.2
  1
22K
  2
RVALUE
 70
     1
 72
     1
 11
4.05475
 21
3.23504
 31
0.0
  0
ATTRIB
  8
0
 10
3.856828
 20
3.598166
 30
0.0
 40
0.2
  1
R6
  2
R-ID
 70
     0
 72
     1
 11
4.023495
 21
3.598166
 31
0.0
  0
SEQEND
  8
0
  0
INSERT
  8
0
 66
     1
  2
RESISTOR
 10
2.825819
 20
4.293478
 30
0.0
  0
ATTRIB
  8
0
 10
3.85475
 20
3.488663
 30
0.0
 40
0.2
  1
.25
  2
POWER
 70
     1
 72
     1
 11
4.05475
 21
3.488663
 31
0.0
  0
ATTRIB
  8
0
 10
3.788083
 20
3.821997
 30
0.0
 40
0.2
  1
22K
  2
RVALUE
 70
     1
 72
     1
 11
4.05475
 21
3.821997
 31
0.0
  0
ATTRIB
  8
0
 10
3.856828
 20
4.185122
 30
0.0
 40
0.2
  1
R7
  2
R-ID
 70
     0
 72
     1
 11
4.023495
 21
4.185122
 31
0.0
  0
SEQEND
  8
0
  0
INSERT
  8
0
 66
     1
  2
RESISTOR
 10
2.825819
 20
4.880435
 30
0.0
  0
ATTRIB
  8
0
 10
3.85475
 20
4.07562
 30
0.0
 40
0.2
  1
.25
  2
POWER
 70
     1
 72
     1
 11
4.05475
 21
4.07562
 31
0.0
  0
ATTRIB
  8
0
 10
3.821416
 20
4.408953
 30
0.0
 40
0.2
  1
15K
  2
RVALUE
 70
     1
 72
     1
 11
4.05475
 21
4.408953
 31
0.0
  0
ATTRIB
  8
0
 10
3.856828
 20
4.772079
 30
0.0
 40
0.2
  1
R8
  2
R-ID
 70
     0
 72
     1
 11
4.023495
 21
4.772079
 31
0.0
  0
SEQEND
  8
0
  0
INSERT
  8
0
 66
     1
  2
RESISTOR
 10
2.825819
 20
5.467391
 30
0.0
  0
ATTRIB
  8
0
 10
3.85475
 20
4.662576
 30
0.0
 40
0.2
  1
.25
  2
POWER
 70
     1
 72
     1
 11
4.05475
 21
4.662576
 31
0.0
  0
ATTRIB
  8
0
 10
3.788083
 20
4.99591
 30
0.0
 40
0.2
  1
1.5K
  2
RVALUE
 70
     1
 72
     1
 11
4.05475
 21
4.99591
 31
0.0
  0
ATTRIB
  8
0
 10
3.856828
 20
5.359035
 30
0.0
 40
0.2
  1
R9
  2
R-ID
 70
     0
 72
     1
 11
4.023495
 21
5.359035
 31
0.0
  0
SEQEND
  8
0
  0
INSERT
  8
0
 66
     1
  2
RESISTOR
 10
2.825819
 20
6.054348
 30
0.0
  0
ATTRIB
  8
0
 10
3.85475
 20
5.249533
 30
0.0
 40
0.2
  1
.25
  2
POWER
 70
     1
 72
     1
 11
4.05475
 21
5.249533
 31
0.0
  0
ATTRIB
  8
0
 10
3.788083
 20
5.582866
 30
0.0
 40
0.2
  1
1.5K
  2
RVALUE
 70
     1
 72
     1
 11
4.05475
 21
5.582866
 31
0.0
  0
ATTRIB
  8
0
 10
3.806828
 20
5.945992
 30
0.0
 40
0.2
  1
R10
  2
R-ID
 70
     0
 72
     1
 11
4.023495
 21
5.945992
 31
0.0
  0
SEQEND
  8
0
  0
INSERT
  8
0
 66
     1
  2
INT-CKT
 10
6.567473
 20
0.771739
 30
0.0
  0
ATTRIB
  8
0
 10
7.019997
 20
0.557569
 30
0.0
 40
0.2
  1
7400
  2
PARTNO
 70
     1
 72
     1
 11
7.35333
 21
0.557569
 31
0.0
  0
ATTRIB
  8
0
 10
7.219997
 20
0.890902
 30
0.0
 40
0.2
  1
Q1
  2
Q-ID
 70
     0
 72
     1
 11
7.35333
 21
0.890902
 31
0.0
  0
SEQEND
  8
0
  0
INSERT
  8
0
 66
     1
  2
INT-CKT
 10
6.567473
 20
1.945652
 30
0.0
  0
ATTRIB
  8
0
 10
7.019997
 20
1.731482
 30
0.0
 40
0.2
  1
7400
  2
PARTNO
 70
     1
 72
     1
 11
7.35333
 21
1.731482
 31
0.0
  0
ATTRIB
  8
0
 10
7.186663
 20
2.064815
 30
0.0
 40
0.2
  1
Q2
  2
Q-ID
 70
     0
 72
     1
 11
7.35333
 21
2.064815
 31
0.0
  0
SEQEND
  8
0
  0
INSERT
  8
0
 66
     1
  2
INT-CKT
 10
6.567473
 20
3.119565
 30
0.0
  0
ATTRIB
  8
0
 10
7.00333
 20
2.905395
 30
0.0
 40
0.2
  1
7404
  2
PARTNO
 70
     1
 72
     1
 11
7.35333
 21
2.905395
 31
0.0
  0
ATTRIB
  8
0
 10
7.186663
 20
3.238728
 30
0.0
 40
0.2
  1
Q3
  2
Q-ID
 70
     0
 72
     1
 11
7.35333
 21
3.238728
 31
0.0
  0
SEQEND
  8
0
  0
INSERT
  8
0
 66
     1
  2
INT-CKT
 10
6.567473
 20
4.293478
 30
0.0
  0
ATTRIB
  8
0
 10
7.00333
 20
4.079308
 30
0.0
 40
0.2
  1
7404
  2
PARTNO
 70
     1
 72
     1
 11
7.35333
 21
4.079308
 31
0.0
  0
ATTRIB
  8
0
 10
7.186663
 20
4.412641
 30
0.0
 40
0.2
  1
Q4
  2
Q-ID
 70
     0
 72
     1
 11
7.35333
 21
4.412641
 31
0.0
  0
SEQEND
  8
0
  0
INSERT
  8
0
 66
     1
  2
INT-CKT
 10
6.567473
 20
5.467391
 30
0.0
  0
ATTRIB
  8
0
 10
7.00333
 20
5.253221
 30
0.0
 40
0.2
  1
7404
  2
PARTNO
 70
     1
 72
     1
 11
7.35333
 21
5.253221
 31
0.0
  0
ATTRIB
  8
0
 10
7.186663
 20
5.586555
 30
0.0
 40
0.2
  1
Q5
  2
Q-ID
 70
     0
 72
     1
 11
7.35333
 21
5.586555
 31
0.0
  0
SEQEND
  8
0
  0
INSERT
  8
0
 66
     1
  2
INT-CKT
 10
9.417221
 20
0.771739
 30
0.0
  0
ATTRIB
  8
0
 10
9.886411
 20
0.557569
 30
0.0
 40
0.2
  1
7410
  2
PARTNO
 70
     1
 72
     1
 11
10.203078
 21
0.557569
 31
0.0
  0
ATTRIB
  8
0
 10
10.036411
 20
0.890902
 30
0.0
 40
0.2
  1
Q6
  2
Q-ID
 70
     0
 72
     1
 11
10.203078
 21
0.890902
 31
0.0
  0
SEQEND
  8
0
  0
INSERT
  8
0
 66
     1
  2
INT-CKT
 10
9.417221
 20
1.945652
 30
0.0
  0
ATTRIB
  8
0
 10
9.886411
 20
1.731482
 30
0.0
 40
0.2
  1
7410
  2
PARTNO
 70
     1
 72
     1
 11
10.203078
 21
1.731482
 31
0.0
  0
ATTRIB
  8
0
 10
10.036411
 20
2.064815
 30
0.0
 40
0.2
  1
Q7
  2
Q-ID
 70
     0
 72
     1
 11
10.203078
 21
2.064815
 31
0.0
  0
SEQEND
  8
0
  0
INSERT
  8
0
 66
     1
  2
INT-CKT
 10
9.417221
 20
3.119565
 30
0.0
  0
ATTRIB
  8
0
 10
9.886411
 20
2.905395
 30
0.0
 40
0.2
  1
7410
  2
PARTNO
 70
     1
 72
     1
 11
10.203078
 21
2.905395
 31
0.0
  0
ATTRIB
  8
0
 10
10.036411
 20
3.238728
 30
0.0
 40
0.2
  1
Q8
  2
Q-ID
 70
     0
 72
     1
 11
10.203078
 21
3.238728
 31
0.0
  0
SEQEND
  8
0
  0
INSERT
  8
0
 66
     1
  2
INT-CKT
 10
9.417221
 20
4.293478
 30
0.0
  0
ATTRIB
  8
0
 10
9.886411
 20
4.079308
 30
0.0
 40
0.2
  1
7410
  2
PARTNO
 70
     1
 72
     1
 11
10.203078
 21
4.079308
 31
0.0
  0
ATTRIB
  8
0
 10
10.036411
 20
4.412641
 30
0.0
 40
0.2
  1
Q9
  2
Q-ID
 70
     0
 72
     1
 11
10.203078
 21
4.412641
 31
0.0
  0
SEQEND
  8
0
  0
INSERT
  8
0
 66
     1
  2
INT-CKT
 10
9.417221
 20
5.467391
 30
0.0
  0
ATTRIB
  8
0
 10
9.853078
 20
5.253221
 30
0.0
 40
0.2
  1
7407
  2
PARTNO
 70
     1
 72
     1
 11
10.203078
 21
5.253221
 31
0.0
  0
ATTRIB
  8
0
 10
9.986411
 20
5.586555
 30
0.0
 40
0.2
  1
Q10
  2
Q-ID
 70
     0
 72
     1
 11
10.203078
 21
5.586555
 31
0.0
  0
SEQEND
  8
0
  0
INSERT
  8
0
 66
     1
  2
DIODE
 10
4.06361
 20
-0.130435
 30
0.0
 50
270.0
  0
ATTRIB
  8
0
 10
3.52616
 20
-0.522121
 30
0.0
 40
0.2
  1
1N18
  2
PARTNUM
 70
     1
 50
270.0
  0
ATTRIB
  8
0
 10
4.390286
 20
-0.814088
 30
0.0
 40
0.2
  1
D1
  2
D-ID
 70
     0
 50
270.0
 72
     1
 11
4.390286
 21
-0.947421
 31
0.0
  0
SEQEND
  8
0
  0
INSERT
  8
0
 66
     1
  2
DIODE
 10
5.473257
 20
-0.130435
 30
0.0
 50
270.0
  0
ATTRIB
  8
0
 10
4.935806
 20
-0.522121
 30
0.0
 40
0.2
  1
1N18
  2
PARTNUM
 70
     1
 50
270.0
  0
ATTRIB
  8
0
 10
5.799932
 20
-0.780755
 30
0.0
 40
0.2
  1
D2
  2
D-ID
 70
     0
 50
270.0
 72
     1
 11
5.799932
 21
-0.947421
 31
0.0
  0
SEQEND
  8
0
  0
INSERT
  8
0
 66
     1
  2
DIODE
 10
6.845403
 20
-0.130435
 30
0.0
 50
270.0
  0
ATTRIB
  8
0
 10
6.307952
 20
-0.522121
 30
0.0
 40
0.2
  1
1N3
  2
PARTNUM
 70
     1
 50
270.0
  0
ATTRIB
  8
0
 10
7.172079
 20
-0.780755
 30
0.0
 40
0.2
  1
D3
  2
D-ID
 70
     0
 50
270.0
 72
     1
 11
7.172079
 21
-0.947421
 31
0.0
  0
SEQEND
  8
0
  0
INSERT
  8
0
 66
     1
  2
DIODE
 10
8.29255
 20
-0.130435
 30
0.0
 50
270.0
  0
ATTRIB
  8
0
 10
7.755099
 20
-0.522121
 30
0.0
 40
0.2
  1
1N3
  2
PARTNUM
 70
     1
 50
270.0
  0
ATTRIB
  8
0
 10
8.619225
 20
-0.780755
 30
0.0
 40
0.2
  1
D4
  2
D-ID
 70
     0
 50
270.0
 72
     1
 11
8.619225
 21
-0.947421
 31
0.0
  0
SEQEND
  8
0
  0
INSERT
  8
0
 66
     1
  2
DIODE
 10
9.664696
 20
-0.130435
 30
0.0
 50
270.0
  0
ATTRIB
  8
0
 10
9.127245
 20
-0.522121
 30
0.0
 40
0.2
  1
1N3
  2
PARTNUM
 70
     1
 50
270.0
  0
ATTRIB
  8
0
 10
9.991371
 20
-0.780755
 30
0.0
 40
0.2
  1
D5
  2
D-ID
 70
     0
 50
270.0
 72
     1
 11
9.991371
 21
-0.947421
 31
0.0
  0
SEQEND
  8
0
  0
LINE
  8
0
 10
2.236291
 20
6.756522
 30
0.0
 11
11.477306
 21
6.756522
 31
0.0
  0
LINE
  8
0
 10
11.477306
 20
6.756522
 30
0.0
 11
11.477306
 21
-2.582609
 31
0.0
  0
LINE
  8
0
 10
11.477306
 20
-2.582609
 30
0.0
 11
9.779987
 21
-2.582609
 31
0.0
  0
LINE
  8
0
 10
9.649987
 20
-2.712609
 30
0.0
 11
9.649987
 21
-3.678261
 31
0.0
  0
LINE
  8
0
 10
4.06361
 20
-2.712609
 30
0.0
 11
4.06361
 21
-3.678261
 31
0.0
  0
LINE
  8
0
 10
2.236291
 20
-2.582609
 30
0.0
 11
3.93361
 21
-2.582609
 31
0.0
  0
LINE
  8
0
 10
2.236291
 20
6.756522
 30
0.0
 11
2.236291
 21
-2.582609
 31
0.0
  0
LINE
  8
0
 10
4.06361
 20
-3.678261
 30
0.0
 11
9.649987
 21
-3.678261
 31
0.0
  0
ARC
  8
0
 10
3.93361
 20
-2.712609
 30
0.0
 40
0.13
 50
0.0
 51
90.0
  0
ARC
  8
0
 10
9.779987
 20
-2.712609
 30
0.0
 40
0.13
 50
90.0
 51
180.0
  0
POLYLINE
  8
0
 66
     1
 10
0.0
 20
0.0
 30
0.0
 40
0.2
 41
0.2
  0
VERTEX
  8
0
 10
6.856799
 20
-3.678261
 30
0.0
  0
VERTEX
  8
0
 10
6.856799
 20
-2.750473
 30
0.0
  0
SEQEND
  8
0
  0
POLYLINE
  8
0
 66
     1
 10
0.0
 20
0.0
 30
0.0
 70
     1
 40
0.1
 41
0.1
  0
VERTEX
  8
0
 10
6.806799
 20
-2.750473
 30
0.0
 42
1.0
  0
VERTEX
  8
0
 10
6.906799
 20
-2.750473
 30
0.0
 42
1.0
  0
SEQEND
  8
0
  0
POLYLINE
  8
0
 66
     1
 10
0.0
 20
0.0
 30
0.0
 70
     1
 40
0.1
 41
0.1
  0
VERTEX
  8
0
 10
7.198367
 20
-2.750473
 30
0.0
 42
1.0
  0
VERTEX
  8
0
 10
7.298367
 20
-2.750473
 30
0.0
 42
1.0
  0
SEQEND
  8
0
  0
POLYLINE
  8
0
 66
     1
 10
0.0
 20
0.0
 30
0.0
 40
0.2
 41
0.2
  0
VERTEX
  8
0
 10
7.248367
 20
-3.678261
 30
0.0
  0
VERTEX
  8
0
 10
7.248367
 20
-2.750473
 30
0.0
  0
SEQEND
  8
0
  0
POLYLINE
  8
0
 66
     1
 10
0.0
 20
0.0
 30
0.0
 70
     1
 40
0.1
 41
0.1
  0
VERTEX
  8
0
 10
7.589936
 20
-2.750473
 30
0.0
 42
1.0
  0
VERTEX
  8
0
 10
7.689936
 20
-2.750473
 30
0.0
 42
1.0
  0
SEQEND
  8
0
  0
POLYLINE
  8
0
 66
     1
 10
0.0
 20
0.0
 30
0.0
 40
0.2
 41
0.2
  0
VERTEX
  8
0
 10
7.639936
 20
-3.678261
 30
0.0
  0
VERTEX
  8
0
 10
7.639936
 20
-2.750473
 30
0.0
  0
SEQEND
  8
0
  0
POLYLINE
  8
0
 66
     1
 10
0.0
 20
0.0
 30
0.0
 40
0.2
 41
0.2
  0
VERTEX
  8
0
 10
8.423072
 20
-3.678261
 30
0.0
  0
VERTEX
  8
0
 10
8.423072
 20
-2.750473
 30
0.0
  0
SEQEND
  8
0
  0
POLYLINE
  8
0
 66
     1
 10
0.0
 20
0.0
 30
0.0
 40
0.2
 41
0.2
  0
VERTEX
  8
0
 10
8.031504
 20
-3.678261
 30
0.0
  0
VERTEX
  8
0
 10
8.031504
 20
-2.750473
 30
0.0
  0
SEQEND
  8
0
  0
POLYLINE
  8
0
 66
     1
 10
0.0
 20
0.0
 30
0.0
 70
     1
 40
0.1
 41
0.1
  0
VERTEX
  8
0
 10
7.981504
 20
-2.750473
 30
0.0
 42
1.0
  0
VERTEX
  8
0
 10
8.081504
 20
-2.750473
 30
0.0
 42
1.0
  0
SEQEND
  8
0
  0
POLYLINE
  8
0
 66
     1
 10
0.0
 20
0.0
 30
0.0
 70
     1
 40
0.1
 41
0.1
  0
VERTEX
  8
0
 10
8.373072
 20
-2.750473
 30
0.0
 42
1.0
  0
VERTEX
  8
0
 10
8.473072
 20
-2.750473
 30
0.0
 42
1.0
  0
SEQEND
  8
0
  0
POLYLINE
  8
0
 66
     1
 10
0.0
 20
0.0
 30
0.0
 40
0.2
 41
0.2
  0
VERTEX
  8
0
 10
9.256209
 20
-3.678261
 30
0.0
  0
VERTEX
  8
0
 10
9.256209
 20
-2.750473
 30
0.0
  0
SEQEND
  8
0
  0
POLYLINE
  8
0
 66
     1
 10
0.0
 20
0.0
 30
0.0
 40
0.2
 41
0.2
  0
VERTEX
  8
0
 10
8.864641
 20
-3.678261
 30
0.0
  0
VERTEX
  8
0
 10
8.864641
 20
-2.750473
 30
0.0
  0
SEQEND
  8
0
  0
POLYLINE
  8
0
 66
     1
 10
0.0
 20
0.0
 30
0.0
 70
     1
 40
0.1
 41
0.1
  0
VERTEX
  8
0
 10
8.814641
 20
-2.750473
 30
0.0
 42
1.0
  0
VERTEX
  8
0
 10
8.914641
 20
-2.750473
 30
0.0
 42
1.0
  0
SEQEND
  8
0
  0
POLYLINE
  8
0
 66
     1
 10
0.0
 20
0.0
 30
0.0
 70
     1
 40
0.1
 41
0.1
  0
VERTEX
  8
0
 10
9.206209
 20
-2.750473
 30
0.0
 42
1.0
  0
VERTEX
  8
0
 10
9.306209
 20
-2.750473
 30
0.0
 42
1.0
  0
SEQEND
  8
0
  0
POLYLINE
  8
0
 66
     1
 10
0.0
 20
0.0
 30
0.0
 40
0.2
 41
0.2
  0
VERTEX
  8
0
 10
6.073662
 20
-3.678261
 30
0.0
  0
VERTEX
  8
0
 10
6.073662
 20
-2.750473
 30
0.0
  0
SEQEND
  8
0
  0
POLYLINE
  8
0
 66
     1
 10
0.0
 20
0.0
 30
0.0
 40
0.2
 41
0.2
  0
VERTEX
  8
0
 10
6.46523
 20
-3.678261
 30
0.0
  0
VERTEX
  8
0
 10
6.46523
 20
-2.750473
 30
0.0
  0
SEQEND
  8
0
  0
POLYLINE
  8
0
 66
     1
 10
0.0
 20
0.0
 30
0.0
 70
     1
 40
0.1
 41
0.1
  0
VERTEX
  8
0
 10
6.51523
 20
-2.750473
 30
0.0
 42
-1.0
  0
VERTEX
  8
0
 10
6.41523
 20
-2.750473
 30
0.0
 42
-1.0
  0
SEQEND
  8
0
  0
POLYLINE
  8
0
 66
     1
 10
0.0
 20
0.0
 30
0.0
 70
     1
 40
0.1
 41
0.1
  0
VERTEX
  8
0
 10
6.123662
 20
-2.750473
 30
0.0
 42
-1.0
  0
VERTEX
  8
0
 10
6.023662
 20
-2.750473
 30
0.0
 42
-1.0
  0
SEQEND
  8
0
  0
POLYLINE
  8
0
 66
     1
 10
0.0
 20
0.0
 30
0.0
 70
     1
 40
0.1
 41
0.1
  0
VERTEX
  8
0
 10
4.898956
 20
-2.750473
 30
0.0
 42
-1.0
  0
VERTEX
  8
0
 10
4.798956
 20
-2.750473
 30
0.0
 42
-1.0
  0
SEQEND
  8
0
  0
POLYLINE
  8
0
 66
     1
 10
0.0
 20
0.0
 30
0.0
 40
0.2
 41
0.2
  0
VERTEX
  8
0
 10
4.848956
 20
-3.678261
 30
0.0
  0
VERTEX
  8
0
 10
4.848956
 20
-2.750473
 30
0.0
  0
SEQEND
  8
0
  0
POLYLINE
  8
0
 66
     1
 10
0.0
 20
0.0
 30
0.0
 40
0.2
 41
0.2
  0
VERTEX
  8
0
 10
5.682093
 20
-3.678261
 30
0.0
  0
VERTEX
  8
0
 10
5.682093
 20
-2.750473
 30
0.0
  0
SEQEND
  8
0
  0
POLYLINE
  8
0
 66
     1
 10
0.0
 20
0.0
 30
0.0
 40
0.2
 41
0.2
  0
VERTEX
  8
0
 10
5.290525
 20
-3.678261
 30
0.0
  0
VERTEX
  8
0
 10
5.290525
 20
-2.750473
 30
0.0
  0
SEQEND
  8
0
  0
POLYLINE
  8
0
 66
     1
 10
0.0
 20
0.0
 30
0.0
 70
     1
 40
0.1
 41
0.1
  0
VERTEX
  8
0
 10
5.340525
 20
-2.750473
 30
0.0
 42
-1.0
  0
VERTEX
  8
0
 10
5.240525
 20
-2.750473
 30
0.0
 42
-1.0
  0
SEQEND
  8
0
  0
POLYLINE
  8
0
 66
     1
 10
0.0
 20
0.0
 30
0.0
 70
     1
 40
0.1
 41
0.1
  0
VERTEX
  8
0
 10
5.732093
 20
-2.750473
 30
0.0
 42
-1.0
  0
VERTEX
  8
0
 10
5.632093
 20
-2.750473
 30
0.0
 42
-1.0
  0
SEQEND
  8
0
  0
POLYLINE
  8
0
 66
     1
 10
0.0
 20
0.0
 30
0.0
 40
0.2
 41
0.2
  0
VERTEX
  8
0
 10
4.457388
 20
-3.678261
 30
0.0
  0
VERTEX
  8
0
 10
4.457388
 20
-2.750473
 30
0.0
  0
SEQEND
  8
0
  0
POLYLINE
  8
0
 66
     1
 10
0.0
 20
0.0
 30
0.0
 70
     1
 40
0.1
 41
0.1
  0
VERTEX
  8
0
 10
4.507388
 20
-2.750473
 30
0.0
 42
-1.0
  0
VERTEX
  8
0
 10
4.407388
 20
-2.750473
 30
0.0
 42
-1.0
  0
SEQEND
  8
0
  0
ENDSEC
  0
EOF
